Cifra Club

Aprenda

AWOL (Tab)

Yellowcard

Tablatura: Principal (guitarra)
tono: G
DROP D TUNING! 
 
GUITAR 1'S PARTS: 
----------------- 
Intro: 
e|---------------------------------------------------------------------------| 
B|---------------------------------------------------------------------------| 
G|----------------------------------------------------------4-4-4-4-4-4-4----| 
D|2-2-2-2-2-*--9-9-9-9-9---------2-2-2-2-2-*--9-9-9-9-9-----4-4-4-4-4-4-4----| 
A|2-2-2-2-2-7--9-9-9-9-9---------2-2-2-2-2-7--9-9-9-9-9-----2-2-2-2-2-2-2----| 
D|2-2-2-2-2----9-9-9-9-9-9h11p9--2-2-2-2-2----9-9-9-9-9-2-2------------------| 
 
Intro Cont'd: 
e|---------------------------------------------------------------------------| 
B|---------------------------------------------------------------------------| 
G|8-8-8-8-8-8-8-9-9-9-9-9-9-9-9-----------------------------4-4-4-4-4-4-4----| 
D|8-8-8-8-8-8-8-9-9-9-9-9-9-9-9-2-2-2-2-1h2p1---2-2-2-2-2-*-4-4-4-4-4-4-4----| 
A|6-6-6-6-6-6-6-7-7-7-7-7-7-7-7-2-2-2-2-------4-2-2-2-2-2-7-2-2-2-2-2-2-2----| 
D|------------------------------2-2-2-2---------2-2-2-2-2--------------------| 
 
Intro Cont'd: 
e|---------------------------------------------------------------------------| 
B|---------------------------------------------------------------------------| 
G|4-4-4-8-8-8-9-9-9-9-9-9-9--------------------------------------------------| 
D|4-4-4-8-8-8-9-9-9-9-9-9-9-2-2-2-2-1h2p1------------------------------------| 
A|2-2-2-6-6-6-7-7-7-7-7-7-7-2-2-2-2-------4----------------------------------| 
D|--------------------------2-2-2-2------------------------------------------| 
  ..... 
 
Verse:  "Maybe it's not over yet..." 
e|---------------------------------------------------------------------------| 
B|----------------------------------------5----------------------------------| 
G|----------------------------------------------4----------------------------| 
D|2~--1~---------6--4--2~-------------6-6---4-4----6--6-6-6-6-6--6-6-6-------| 
A|----2~---2h4~-------------2~---4~----------------4--4-4-4-4-4--4-4-4-6-6-6-| 
D|---------------------------------------------------------------------6-6-6-| 
                                                   ......................... 
 
Verse Cont'd: 
e|---------------------------------------------------------------------------| 
B|---------------------------------------------------------------------------| 
G|-----------------------------------6-6-6-6-6-6-6-6-----------------4-4-4-4-| 
D|-------------------9-9-9-9-9-9-9-9-6-6-6-6-6-6-6-6-4-4-4-4-4-4-4-4-4-4-4-4-| 
A|6/7-7-7-7--7-7-7-7-7-7-7-7-6-6-6-6-4-4-4-4-4-4-4-4-4-4-4-4-4-4-4-4-2-2-2-2-| 
D|6/7-7-7-7--7-7-7-7---------------------------------4-4-4-4-4-4-4-4---------| 
  .................................. 
 
Verse Cont'd: 
e|---------------------------------------------------------------------------| 
B|---------------------------------------------------------------------------| 
G|4-4-4-4-4-4-4-4------------------------------------------------------------| 
D|4-4-4-4-4-4-4-4------------------------------------------------------------| 
A|2-2-2-2-2-2-2-2-4--4--4--4--4-4-4-4-6--6--6--6--6-6-6-6-7--7--7--7--7-7-7-7| 
D|---------------------------------------------------------------------------| 
                  ........................................................... 
 
Verse Cont'd/Chorus:  "Ran from the life that he hates..." 
e|---------------------------------------------------------------------------| 
B|---------------------------------------------------------------------------| 
G|4-6-8-9x--------------5-5-5-5-5-5-5/7-7-7-7-7-7-7-7-9-9-9-9-9-9-9-9--------| 
D|4-6-8-9x--------------5-5-5-5-5-5-5/7-7-7-7-7-7-7-7-9-9-9-9-9-9-9-9-1-1-1-1| 
A|2-4-6-7x-----7-7-7x---3-3-3-3-3-3-3/5-5-5-5-5-5-5-5-7-7-7-7-7-7-7-7-2-2-2-2| 
D|---------------------------------------------------------------------------| 
               ..... 
 
Chorus Cont'd: 
e|---------------------------------------------------------------------------| 
B|---------------------------------------------------------------------------| 
G|--------5-5-5-5-5-5-5-5-7-7-7-7-7-7-7-7-9-9-9-9-9-9-9-9-----------------5-5| 
D|1-1-1-1-5-5-5-5-5-5-5-5-7-7-7-7-7-7-7-7-9-9-9-9-9-9-9-9-1-1-1-1-1-1-1-1-5-5| 
A|2-2-2-2-3-3-3-3-3-3-3-3-5-5-5-5-5-5-5-5-7-7-7-7-7-7-7-7-2-2-2-2-2-2-2-2-3-3| 
D|---------------------------------------------------------------------------| 
 
Chorus Cont'd: 
e|---------------------------------------------------------------------------| 
B|---------------------------------------------------------------------------| 
G|5-5-5-5-5-5-7-7-7-7-7-7----------------------------------------------------| 
D|5-5-5-5-5-5-7-7-7-7-7-7----------------------------------------------------| 
A|3-3-3-3-3-3-5-5-5-5-5-5----------------------------------------------------| 
D|---------------------------------------------------------------------------| 
                ...   ... 
 
Interlude:  (2x) 
e|---------------------------------------------------------------------------| 
B|---------------------------------------------------------------------------| 
G|------9--------------------------------------------------------------------| 
D|6-----9-----6-----6-7-9-9/10-10-10-9-9--9-7-7--7---------------------------| 
A|7-7-7-7-7-7-7-7-7--------------------------------6h7p6---------------------| 
D|-------------------------------------------------------9-------------------| 
    ...   ...                  ................... 
 
Repeat Verse up until 2nd palm muted part 
 
Then This:  (2x) 
e|---------------------------------------------------------------------------| 
B|---------------------------------------------------------------------------| 
G|----------------4-4-4-4-14-14-14-------------------------------------------| 
D|2-2-2-2-2-2-2-2-4-4-4-4--x--x--x-7-7-7-7-7-7-7-7-7-7-7-7-7-7-7-7-----------| 
A|2-2-2-2-2-2-2-2-2-2-2-2-12-12-12-7-7-7-7-7-7-7-7-7-7-7-7-7-7-7-7-----------| 
D|2-2-2-2-2-2-2-2------------------7-7-7-7-7-7-7-7-6-6-6-6-6-6-6-6-----------| 
 
Then This:  "Run from the life that he hates..." 
e|---------------------------------------------------------------------------| 
B|---------------------------------------------------------------------------| 
G|---------------------------------------------------------------------------| 
D|2~---------7-7-7-7-7-7-7-7-7-7---------------------------------------------| 
A|2~---------5-5-5-5-5-5-5-5-5-5---------------------------------------------| 
D|2~-------------------------------------------------------------------------| 
               .......   ....... 
 
Repeat 2nd Bar of Chorus 
 
Repeat Interlude:  (2x) 
 
Ending: 
e|---------------------------------------------------------------------------| 
B|---------------------------------------------------------------------------| 
G|------------4-4---4-4---5~-------------------------------------------------| 
D|2-----2-----2-2---2-2---x--------------------------------------------------| 
A|2-----2-----2-2---2-2---3~-------------------------------------------------| 
D|2-2-2-2-2-2-2-2-2-2-2-2----------------------------------------------------| 
    ...   ...     .     . 
 
GUITAR 2'S PARTS: 
----------------- 
Intro: 
e|---------------------------------------------------------------------------| 
B|---------------------------------------------------------------------------| 
G|----------------------------------------------------------4-4-4-4-4-4-4----| 
D|2-2-2-2-2----9-9-9-9-9---------2-2-2-2-2----9-9-9-9-9-----4-4-4-4-4-4-4----| 
A|2-2-2-2-2-*--9-9-9-9-9---------2-2-2-2-2-*--9-9-9-9-9-----2-2-2-2-2-2-2----| 
D|2-2-2-2-2-7--9-9-9-9-9-9h11p9--2-2-2-2-2-7--9-9-9-9-9-2-2------------------| 
 
Intro Cont'd: 
e|---------------------------------------------------------------------------| 
B|---------------------------------------------------------------------------| 
G|8-8-8-8-8-8-8-9-9-9-9-9-9-9-9---------4h6-4-2-------------4-4-4-4-4-4-4----| 
D|8-8-8-8-8-8-8-9-9-9-9-9-9-9-9-2-2-2-2---------2-2-2-2-2---4-4-4-4-4-4-4----| 
A|6-6-6-6-6-6-6-7-7-7-7-7-7-7-7-2-2-2-2---------2-2-2-2-2-*-2-2-2-2-2-2-2----| 
D|------------------------------2-2-2-2---------2-2-2-2-2-7------------------| 
 
Intro Cont'd: 
e|---------------------------------------------------------------------------| 
B|---------------------------------------------------------------------------| 
G|4-4-4-8-8-8-9-9-9-9-9-9-9-9-9-9-9-4h6-4-2----------------------------------| 
D|4-4-4-8-8-8-9-9-9-9-9-9-9-9-9-9-9------------------------------------------| 
A|2-2-2-6-6-6-7-7-7-7-7-7-7-7-7-7-7------------------------------------------| 
D|---------------------------------------------------------------------------| 
  ..... 
 
Verse:  "Maybe it's not over yet..." 
e|---------------------------------------------------------------------------| 
B|---------------------------------------------------------------------------| 
G|---------------------------------------------------------------------------| 
D|--------------------1-------6~-----------1--4/6-6--6-6-4-2-1~--1h2-2-2-----| 
A|4~---------------------4~----------------------------------------------2-2-| 
D|-----6~--6h7~----2--------------7~----2------------------------------------| 
 
Verse Cont'd: 
e|---------------------------------------------------------------------------| 
B|---------------------------------------------------------------------------| 
G|---------------6-6-6-6-6-6-6-6-----------------4-4-4-6-6-6-8-8-8-4-4-4-----| 
D|4/6-6--4-6-4-2-6-6-6-6-6-6-6-6-4-4-4-4-4-4-4-4-x-x-x-x-x-x-x-x-x-x-x-x-----| 
A|---------------4-4-4-4-4-4-4-4-4-4-4-4-4-4-4-4-2-2-2-4-4-4-6-6-6-2-2-2-----| 
D|-------------------------------4-4-4-4-4-4-4-4-----------------------------| 
 
Verse Cont'd: 
e|---------------------------------------------------------------------------| 
B|---------------------------------------------------------------------------| 
G|---------------------------------------------------------------------------| 
D|---------------------------------------------------------------------1-----| 
A|4--4--4--4--4-4-4-4-2--2--2--2--2-2-2-2-0--0--0--0--0-0-0-0-0x---0-2-------| 
D|---------------------------------------------------------------------------| 
  ............................................................. 
 
Verse Cont'd: 
e|---------------------------------------------------------------------------| 
B|---------------------------------------------------------------------------| 
G|4-4-4-4-4-4-4x-------------------------------------------------------------| 
D|2-2-2-2-2-2-2x--2-2-2-1h2p1------------------------------------------------| 
A|----------------------------2----------------------------------------------| 
D|---------------------------------------------------------------------------| 
                  ..... 
 
Chorus:  (Play same as guitar 1) 
 
Interlude:  (2x) 
e|------7--------------------------------------------------------------------| 
B|--------7-7--------9-10-9-10-10-10-10--10-9-9-9-9--9-7-7-7-7--7-9-9-9-9-9-9| 
G|------------9--9-9---------9--9--9--9---9-9-9-9-9--9-9-9-9-9--9-9-9-9-9-9-9| 
D|6-6-6----------------------------------------------------------------------| 
A|---------------------------------------------------------------------------| 
D|---------------------------------------------------------------------------| 
  .....   ...    ... 
 
Repeat Verse up until 2nd palm muted part 
 
Then This:  (2x) 
e|---------------------------------------------------------------------------| 
B|---------------------------------------------------------------------------| 
G|----------------4-4-4-4-4-4-4-4--------------------------------------------| 
D|2-2-2-2-2-2-2-2-4-4-4-4-4-4-4-4-7-7-7-7-7-7-7-7-7-7-7-7-7-7-7-7------------| 
A|2-2-2-2-2-2-2-2-2-2-2-2-2-2-2-2-7-7-7-7-7-7-7-7-7-7-7-7-7-7-7-7------------| 
D|2-2-2-2-2-2-2-2-----------------7-7-7-7-7-7-7-7-6-6-6-6-6-6-6-6------------| 
 
Then This:  "Run from the life that he hates..." 
e|---------------------------------------------------------------------------| 
B|---------------------------------------------------------------------------| 
G|---------------------------------------------------------------------------| 
D|2~---------7-7-7-7-7-7-7-7-7-7---------------------------------------------| 
A|2~---------5-5-5-5-5-5-5-5-5-5---------------------------------------------| 
D|2~-------------------------------------------------------------------------| 
               .......   ....... 
 
Repeat 2nd Bar of Chorus 
 
Outro:  (2x) 
e|-------7-------------------------------------------------------------------| 
B|5-5-5--5--7-7--5--5-5------------------------------------------------------| 
G|4-4-4--4--4-4--4--4-4---------4-5-5-5--5-4-5-5-5--5-4-5-5-5--5-4-5-4-------| 
D|6-6-6--6--6-6--6--6-6--6-7-6--5-5-5-5--5-5-5-5-5--5-5-5-5-5--5-5-5-5-------| 
A|---------------------------------------------------------------------------| 
D|---------------------------------------------------------------------------| 
 
3rd Time: 
e|-------7-------------------------------------------------------------------| 
B|5-5-5--5--7-7--------------------------------------------------------------| 
G|4-4-4--4--4-4------------5~------------------------------------------------| 
D|6-6-6--6--6-6------------2~------------------------------------------------| 
A|--------------7-7---7-7--3~------------------------------------------------| 
D|---------------------------------------------------------------------------| 
Colaboración y revision:
  • Hériko Brayn
17 reproducciones
    • ½ Tono
    • A
    • Bb
    • B
    • C
    • Db
    • D
    • Eb
    • E
    • F
    • F#
    • G
    • Ab
  • Adicionar à lista

    0 comentarios

    Ver todos os comentários

    ¿Conseguiste tocar?

    0 Tocaram 0 Ainda não

    Grave um vídeo tocando AWOL (Tab) e nos envie!

    00:00 / 00:00
    outros vídeos desta música
    repetir qualidade Automático
    Outros vídeos desta música
    00:00 / 00:00
    Automático
    OK