Cifra Club

Aprenda

Believe

Yellowcard

Tablatura: Principal (guitarra)
tono: A
Afinação: DADGBe 
 
GUITAR 1 
------------ 
 
Intro(x2)-figure out the strumming 
 
e|-----------------------------| 
B|-----------------------------| 
G|-----------------------------| 
D|-4---0---7---2---------------| 
A|-4---0---7---2---------------| 
D|-4---0---7---2---------------| 
 
Verse(x4)(Think about the love...) 
 
e|----------------------------------------------------------| 
B|----------------------------------------------------------| 
G|----------------------------------------------------------| 
D|-7-7--7-7-7---7-7--7-7-7---7-7--7-7-7----6-6--6-6-6-------| 
A|-4-4--4-4-4---5-5--5-5-5---7-7--7-7-7----7-7--7-7-7-------| 
D|----------------------------------------------------------| 
 
Pre Chorus(x1)- figure out the strumming 
 
e|----------------------------------| 
B|----------------------------------| 
G|----------------------------------| 
D|-0-2-4-2----0--7--2--9------------| 
A|-0-2-4-2----0--7--2--9------------| 
D|-0-2-4-2----0--7--2--9------------| 
 
Chorus-(Everything is gonna be alright...)(no guitar 1) 
 
repeat Intro 
 
repeat Verse 
 
repeat Pre Chorus 
 
Chorus-(no guitar 1) 
 
Bridge(x10) 
 
e|-----------------------------------------------------| 
B|-----------------------------------------------------| 
G|-----------------------------------------------------| 
D|-----------------------------------------------------| 
Al--9--11p9--12p9--11p9--12p9--11p9--12p9--11p9--------| 
D|-----------------------------------------------------| 
 
repeat Intro(x2) until violin solo 
 
repeat Intro(x4)until Ryan stops singing 
 
repeat Bridge(x4)until end of song 
 
GUITAR 2 
------------ 
 
Intro:not sure about sorry :( 
 
1st part of Verse:(no guitar 2) 
 
2nd part of Verse(Climbing Higher...) 
 
e|--------------------------------------------------------| 
B|--------------------------------------------------------| 
G|-----9-----9-----9-----9-----9-----9-----9-----9--------| 
D|-7-7---7-7---7-7---7-7---7-7---7-7---7-7---7-7----------| 
A|--------------------------------------------------------| 
D|--------------------------------------------------------| 
 
Pre Chorus- figure out strumming 
 
e|----------------------------------------------------------------------------| 
B|----------------------------------------------------------------------------| 
G|--7--9--11--13---14--9--7--14--9--4-----------------------------------------| 
D|--x--x--x---x----x---x--x--x---x--x-----------------------------------------| 
A|--5--7--9---11---12--7--5--12--7--2-----------------------------------------| 
D|----------------------------------------------------------------------------| 
 
Chorus 
 
e|----------------------------------------------------------------------------| 
B|----------------------------------------------------------------------------| 
G|------2------------2------------2-----------2-----2-------------------------| 
D|---------(x4)---------(x4)--------(x4)--------------------------------------| 
A|--0-0-----------------------0-0---------------------------------------------| 
D|---------------0-0----------------------2-2---2-2---2-2-2-2-2-2-------------| 
    . .          . .          . .         . .   . .   . . . . . . 
 
repeat Intro 
 
repeat Verse 
 
repeat Pre Chorus 
 
repeat Chorus 
 
Bridge: not sure about sorry :( 
 
repeat Intro(x2) until violin solo 
 
repeat Intro(x4) until Ryan stops singing 
 
Composição de Peter Mosely / Yellowcard
Colaboración y revision:
  • Ramon
84 reproducciones
    • ½ Tono
    • A
    • Bb
    • B
    • C
    • Db
    • D
    • Eb
    • E
    • F
    • F#
    • G
    • Ab
  • Adicionar à lista

    0 comentarios

    Ver todos os comentários
    00:00 / 00:00
    outros vídeos desta música
    repetir qualidade Automático
    Outros vídeos desta música
    00:00 / 00:00
    Automático
    OK