Cifra Club

Aprenda

Breathing Intro

Yellowcard

Tablatura: Principal (guitarra)
tono: A
----------------------------------------------------------------------------Tabbed by: Joey
Email: *

Tuning:EADGBe

This is the violin part at the intro of the song after the palm mute part.
No one else has tabbed this.

e|----------------0-----------------0-----------------0-----------------0--|
B|-14-15-12-14-15----14-15-12-14-15----14-15-12-14-15----14-15-12-14-15----|
G|-------------------------------------------------------------------------|
D|-------------------------------------------------------------------------|
A|-------------------------------------------------------------------------|
E|-------------------------------------------------------------------------|

e|----------------0-----------------0-----------------0-----------------0--|
B|-14-15-12-14-15----14-15-12-14-15----14-15-12-14-15----14-15-12-14-15----|
G|-------------------------------------------------------------------------|
D|-------------------------------------------------------------------------|
A|-------------------------------------------------------------------------|
E|-------------------------------------------------------------------------|

Have fun playing the violin parts in BREATHING.







81 reproducciones
    • ½ Tono
    • A
    • Bb
    • B
    • C
    • Db
    • D
    • Eb
    • E
    • F
    • F#
    • G
    • Ab
  • Adicionar à lista

    0 comentarios

    Ver todos os comentários

    ¿Conseguiste tocar?

    0 Tocaram 0 Ainda não

    Grave um vídeo tocando Breathing Intro e nos envie!

    00:00 / 00:00
    outros vídeos desta música
    repetir qualidade Automático
    Outros vídeos desta música
    00:00 / 00:00
    Automático
    OK