Cifra Club

Aprenda

Cigarette

Yellowcard

Tablatura: Principal (guitarra)
tono: D
Album:          One For The Kids
Tabbed by:      Per Karlsson [*]


Note:           Listen to the song for strumming pattern

INTRO/VERSE:
e|-------------------------|
B|-------------------------|
G|--7->-6->-7->-2->-4>0>2--|
D|--0->-0->-0->-0->-0>4>0--|
A|--0->-x->-x->-x->-x>x>0--|
D|--0->-7->-9->-4->-5>5>0--|

e|-------------------------|
B|--------------7->-5->-7--|
G|--7->-6->-7->-7->-6->-7--|
D|--0->-0->-0->-7->-7->-7--|
A|--0->-x->-x->-5->-4-/-5--|
D|--0->-7->-9->-0->-0->-0--|

PRE-CHORUS:                   *Add this just before chorus
e|------------------2->----|-----|
B|------------------3->----|--7--|
G|--7->-7->-7->-7->-4->-7--|--7--|
D|--7->-8->-7->-8->-4->-5--|--5--|
A|--9->-10>-9->-10>-2->-5--|--5--|
D|--0->-0->-0->-0->-----5--|--5--|

CHORUS: x2                    *Add this to the first part
                              of the chorus
e|----------2->---------0--|--0--|
B|--7->-5->-3->---------2--|--2--|
G|--7->-6->-4->-7->-7->-2--|--0--|
D|--7->-7->-4->-5->-4->-2--|--2--|
A|--5->-4->-2->-5->-5->-0--|--0--|
D|--0->-0->-----5->-4->----|-----|


INTERLUDE: Same as INTRO/VERSE

VERSE


BRIDGE: Guitar 1
e|------0->---|
B|------2->5--|
G|--7->-2->6--| x2
D|--5->-2->7--|
A|--5->-0->4--|
D|--5->----0--|
        Guitar 2
e|------0-----|
B|------2->5--|
G|--7->-2->2--| x2
D|--5->-2->2--|
A|--5->-0->0--|
D|--5->-------|


PRE-CHORUS

CHORUS

PRE-CHORUS

END ON:
e|-----|
B|--7--|
G|--7--|
D|--7--|
A|--9--|
D|--0--|
Composição de Ryan Key / Yellowcard
156 reproducciones
    • ½ Tono
    • A
    • Bb
    • B
    • C
    • Db
    • D
    • Eb
    • E
    • F
    • F#
    • G
    • Ab
  • Adicionar à lista

    0 comentarios

    Ver todos os comentários

    ¿Conseguiste tocar?

    0 Tocaram 0 Ainda não

    Grave um vídeo tocando Cigarette e nos envie!

    00:00 / 00:00
    outros vídeos desta música
    repetir qualidade Automático
    Outros vídeos desta música
    00:00 / 00:00
    Automático
    OK