Cifra Club

Empty Apartment

Yellowcard

Cifrado: Principal (guitarra y guitarra eléctrica)
Selo Cifra Club: esta cifra foi revisada para atender aos critérios oficiais da nossa Equipe de Qualidade.
tono: C
(Am C G G/B D)
Call me out
You stayed inside
One you love
Is where you hide
Shot me down as I flew by
Crash and burn
I think sometimes
       F             Fm
You forget where the heart is

(Am C G G/B D)
Answer no to these questions
Let her go, learn a lesson
It´s not me, you´re not listening now
Can´t you see something´s missing?
           F                  Fm
You forget where the heart is

(refrão)
          C             G/E
Take you away from that empty apartment
     Am         F
You stay and forget where the heart is
  C        G/E                      Am        F
Someday if ever you love me you´d say it´s okay

(solo) Am C G D

E|--------------------------------------------------------------------------------------
B|------------------------------------------------------------------8-------------------
G|--7--5--7~~~-5--7--5~~~-----5--7/9~~~-9--7--9--7~~~-7--5--7b(Hold)---7--5------5------
D|-------------------------7-------------------------------------------------5h7----7---
A|--------------------------------------------------------------------------------------
E|--------------------------------------------------------------------------------------

----------------------|
----------------------|
-----555-5L4----------|
-5h7----------7-5/7---|
----------------------|
----------------------|

(Am C G G/B D)
Waking up from this nightmare
How´s your life, what´s it like there?
Is it all what you want it to be?
Does it hurt when you think about me?
          F       Fm
And how broken my heart is

(refrão)
          C             G/E
Take you away from that empty apartment
     Am         F
You stay and forget where the heart is
  C        G/E                      Am        F
Someday if ever you love me you´d say it´s okay

(C G Am F)
It´s okay to be angry and never let go
It only gets harder the more that you know
When you get lonely if no one´s around
You know that I´ll catch you when you´re falling down
We came together but you left alone
And I know how it feels to walk out on your own
Maybe someday I will see you again
And you´ll look me in my eyes and call me your friend

(refrão)
          C             G/E
Take you away from that empty apartment
     Am         F
You stay and forget where the heart is
  C        G/E                      Am        F
Someday if ever you love me you´d say it´s okay
      C     G Am F
It´s okay
      C     G Am F
It´s okay
Otros videos de esta canción
    426 exhibiciones
      • ½ Tono
      • A
      • Bb
      • B
      • C
      • Db
      • D
      • Eb
      • E
      • F
      • F#
      • G
      • Ab
    • Agregar a la lista

    Afinação da cifra

    Afinador online

      Ops (: Contenido disponible solo en portugués.
      OK