Cifra Club

Aprenda

Empty Apartment

Yellowcard

Tab de bajo: Principal
“one you love...”
G|-2-5-4-0--|
D|--------4-|
A|----------|
E|----------|x2

"answer no..."
G|-------|
D|-3-2---|
A|-----3-|
E|-------|

“to this questions...”
G|----------------------|
D|----------5-5/7-5-4-0-|  
A|-0~-2-3--3------------|
E|----------------------|x2

Pre-chorus
G|---------0-1-0-1-0--|
D|-2-3-2-3----------3-|
A|--------------------|
E|--------------------|

Chorus
G|-----------------------------------|---------------------------------------|
D|-----------------------------------|---------------------------------------|
A|-3-3-3-3--2-2-2-2------------------|-3-3-3-3--2-2-2-2----------------------|
E|-------------------5-5-5-5-1-1-1-1-|-------------------5-5-5-5-1/2-3/2-1/2-|

Verse x4
Pre-chorus

Chorus
G|-----------------------------------|---------------------------------------|
D|-----------------------------------|---------------------------------------|
A|-3-3-3-3--2-2-2-2------------------|-3-3-3-3--2-2-2-2----------------------|
E|-------------------5-5-5-5-1-1-1-1-|-------------------5-5-5-5-1/2-3/5-7/8~|

Bridge: “It´s Okay to be...”
G|-------------------|
D|-------------------|
A|-------------------|
E|-7~----5~----1~----|

G|---------------------|          |------------------------|
D|---------------------|          |------------------------|
A|-3333-2222-----------|          |-3333-2222--------------|
E|-----------5555-1111-|x2        |-----------555555-111111|

G|-----------------------------|----------------------------------|
D|-----------------------------|----------------------------------|
A|-333333-222222---------------|-333333-222222--------------------|
E|---------------555555-111111-|---------------555555--1/2-3/5-7/8~|

G|-----------------------|-------------------------------|
D|-----------------------|-------------------------------|
A|--222222---------------|-333333-222222-----------------|
E|---------555555-111111-|---------------555555-111/1111-|

G|--------------------------------|
D|--------------------------------|
A|-333333-222/2222----------------|
E|-----------------555555111/1111-|x2
Composição de Peter Mosely / Yellowcard
Colaboración y revision:
  • Evandro Santos
15 reproducciones

0 comentarios

Ver todos os comentários

¿Conseguiste tocar?

0 Tocaram 0 Ainda não

Grave um vídeo tocando Empty Apartment e nos envie!

00:00 / 00:00
outros vídeos desta música
repetir qualidade Automático
Outros vídeos desta música
00:00 / 00:00
Automático
OK