Cifra Club

Aprenda

Fighting

Yellowcard

Tablatura: Principal (guitarra)
tono: G
Paper Walls

You can hear it on the bands myspace.

Drop D Tuning

Intro 3x
E|----------------------------------------------|
B|----------------------------------------------|
G|-5-5-5-5--5-5-5-5--7-7-7-7--9-9-9-9--7-7-7-7--|
D|-5-5-5-5--5-5-5-5--7-7-7-7--9-9-9-9--7-7-7-7--|
A|-3-3-3-3--3-3-3-3--5-5-5-5--7-7-7-7--5-5-5-5--|
D|----------------------------------------------|

Verse 1
Palm Muted 2x
E|---------------------------------------------|
B|---------------------------------------------|
G|---------------------------------------------|
D|---------------------------------------------|
A|-0-0-0-0-0-0-0-0--5-5-5-5--7-7-7-7--5-5-5-5--|
D|-0-0-0-0-0-0-0-0--5-5-5-5--7-7-7-7--5-5-5-5--|

Chorus 2x
E|---------------------------------------------|
B|---------------------------------------------|
G|-5-5-5-5-5-5-5-5--7-7-7-7--9-9-9-9-----------|
D|-5-5-5-5-5-5-5-5--5-5-5-5--7-7-7-7--0-0-0-0--|
A|-3-3-3-3-3-3-3-3--5-5-5-5--7-7-7-7--0-0-0-0--|
D|------------------5-5-5-5--7-7-7-7--0-0-0-0--|

Interlude
E|----------------------------|
B|----------------------------|
G|-5-5-5-5--5-5-5-5--7-7-7-7--|
D|-5-5-5-5--5-5-5-5--7-7-7-7--|
A|-3-3-3-3--3-3-3-3--5-5-5-5--|
D|----------------------------|

Verse 2
Same as Verse 1 [4x]

Chorus 4x

Bridge
D|-------------------|
A|-10\9/12--10\9/14--|
D|-------------------|

6x
E|---------------------------------------|
B|---------------------------------------|
G|-12\11/14-14-14-14--12\11/16-16-16-16--|
D|--x\-x/-x--x--x--x---x\-x/-x--x--x--x--|
A|-10\-9/12-12-12-12--10\-9/14-14-14-14--|
D|---------------------------------------|

"said i'm okay but i know how to lie..."
E|-----
B|-----
G|-5~--
D|-5~--
A|-3~--
D|-----


Chorus 6x

Outro
Same as intro [1x]

That's it!
Composição de Ryan Key
36 reproducciones
    • ½ Tono
    • A
    • Bb
    • B
    • C
    • Db
    • D
    • Eb
    • E
    • F
    • F#
    • G
    • Ab
  • Adicionar à lista

    0 comentarios

    Ver todos os comentários

    ¿Conseguiste tocar?

    0 Tocaram 0 Ainda não

    Grave um vídeo tocando Fighting e nos envie!

    00:00 / 00:00
    outros vídeos desta música
    repetir qualidade Automático
    Outros vídeos desta música
    00:00 / 00:00
    Automático
    OK