Cifra Club

Aprenda

Gifts and Curses

Yellowcard

Tablatura: Principal (guitarra)
tono: E
INTRO
|---------------------------------------
|---------------------------------------
|---------------------------------------
|-0-0---2-2-2---------------------------
|-0-0---2-2-2---------------------------
|-0-0---2-2-2---------------------------


TOCAR 2x:
|-----------------------------------------------------------------
|-----------------------------------------------------------------
|-----------------------------------------------------------------
|-0-0-0-0-0-0-0-0-0-0-0-0-0-0-0~--2-2-2-2-2-2-2-2-2-2-2-2-2-2-2~--
|-0-0-0-0-0-0-0-0-0-0-0-0-0-0-0~--2-2-2-2-2-2-2-2-2-2-2-2-2-2-2~--
|-0-0-0-0-0-0-0-0-0-0-0-0-0-0-0~--2-2-2-2-2-2-2-2-2-2-2-2-2-2-2~--
|                                                                
|-----------------------------------------------------------------
|-----------------------------------------------------------------
|-9-9-9-9-9-9-9-9-9-9-9-9-9-9-9~--9-9-9-9-9-9-9-9-9-9-9-9-9-9-9~--
|-----------------------------------------------------------------
|-7-7-7-7-7-7-7-7-7-7-7-7-7-7-7~--7-7-7-7-7-7-7-7-7-7-7-7-7-7-7~--
|-----------------------------------------------------------------

|-----------------------------------------------------------------
|-----------------------------------------------------------------
|-----------------------------------------------------------------
|-4-4-4-4-4-4-4-4-4-4-4-4-7-7-7~--0-0-0-0-0-0-0-0-0-0-0-0--2-2-2--
|-4-4-4-4-4-4-4-4-4-4-4-4-7-7-7~--0-0-0-0-0-0-0-0-0-0-0-0--2-2-2--
|-4-4-4-4-4-4-4-4-4-4-4-4-7-7-7~--0-0-0-0-0-0-0-0-0-0-0-0--2-2-2--
|                                
|-----------------------------------------------------------------
|-----------------------------------------------------------------
|-6-6-6-6-6-6-6-6-6-6-6-6-9-9-9~--7-7-7-7-7-7-7-7-7-7-7-7--7-7-7--
|-----------------------------------------------------------------
|-4-4-4-4-4-4-4-4-4-4-4-4-7-7-7~--5-5-5-5-5-5-5-5-5-5-5-5--5-5-5--
|-----------------------------------------------------------------

VIOLINO SOLO [Played over intro once]
|-14-16-17~-----------------------------------------
|-----------14-15-17~----17-14~---17-15-14----14----
|---------------------16-------------------16----14-
|---------------------------------------------------
|---------------------------------------------------
|---------------------------------------------------



VERS0 2x:(Listen carefully)
|----------------------------------------------------------
|-----------------------0---0------------------------------
|---6-----6-------6-------6-------6-----6------6-----6-----
|-----7-----7-------7---------------7-----7------7-----7---
|-------------4-5-----5-------5-0-----0-----0--------------
|-4-----4-------------------------------------6----6-----6-

|-----------------------------------------------------------
|-----------------------0---0-------------------------------
|---6-----6-------6-------6-------6-----6-7-9---6-----6-----
|-----7-----7-------7---------------7-------------7-----7---
|-------------4-5-----5-------5-0-----0---------------------
|-4-----4-------------------------------------6-----6-----6-



PRE CHORUS
|-----------------------------------------------------------
|-----------------------------------------------------------
|---2------2----2---1-------2-------2-----2---2-----2-------
|-2---2-2-----2---2----2--2---2--2-----2----0---0-0---0---0-
|-----------------------------------------------------------
|-----------------------------------------------------------

|-----------------------------------------------------------
|-3-----2---------------------------------------------------
|----------------------2-----2----2----1-------2-------2----
|---0-0---0--0--0--0-2---2-2----2---2----2--2-----2--2----2-
|-----------------------------------------------------------
|-----------------------------------------------------------

|------------------------------------|----------------------
|------------------------------------|----------------------
|-------2-----------2-----------2----|----------------------
|-0---------0---0-------0---0--------|---0-0---2-2-2--------
|------------------------------------|---0-0---2-2-2--------
|------------------------------------|---0-0---2-2-2--------
                                         . .
Violino do prechorus. (The bend is a very slow bend)
|---------------------------------------------------
|---------------------------------------------------
|---------------------------------------------------
|-7~--6--7~--7~--6--7~--7~--6--7--9b11--------------
|---------------------------------------------------
|---------------------------------------------------

CHORUS (Listen to song for timing)
|---------------------------------------------------
|---------------------------------------------------
|---------------------------------------------------
|--7---0---4---0---4---0---7---0--------------------
|--7---0---4---0---4---0---7---0--------------------
|--7---0---4---0---4---0---7---0--------------------

Violino (Lead in chorus)
|-9---------9----------9---------9-----------
|---10-9-10---10-9-10----10-9-10---10-9-10---
|--------------------------------------------
|--------------------------------------------
|--------------------------------------------
|--------------------------------------------

|-10---------10----------9---------7---------
|----10-9-10----10-9-10----10-9-10---10-9-10-
|--------------------------------------------
|--------------------------------------------
|--------------------------------------------
|--------------------------------------------

|------------10----------9---------7---------
|-10-10-9-10----10-9-10----10-9-10---10-9-10-
|--------------------------------------------
|--------------------------------------------
|--------------------------------------------
|--------------------------------------------

|----9-9----12~-----9~-----12----12-16-17-19-
|-10-----10-----10------10----10-------------
|--------------------------------------------
|--------------------------------------------
|--------------------------------------------
|--------------------------------------------

-----------------------------------------
REPETE VERSO & CHORUS 
-----------------------------------------


(This is the first piano bit played over many times at first)
|--------------------------------------------
|-10------9-----10-----9-----10---9----------
|----9------9------9-----9------9---9--------
|------0------0------0-----0-----------------
|--------------------------------------------
|--------------------------------------------

Violino (played over piano tabbed out above)
|--------------------------------------------
|--------------------------------------------
|--------------------------11-13-14----------
|-12~--9~-/14-11~--14-12~-----------14-12-9--
|--------------------------------------------
|--------------------------------------------

|--------------------------------------------
|--------------------------------------------
|--------------------------------------------
|-9-14-11~--14-12-11----11-------------------
|--------------------14----12----------------
|--------------------------------------------

Violino continuação - 2x (piano changes, it\'s not tabbed)
|---------------------------12---------------
|-------10h12-10~--------10----12~--------10-
|-11h13------------11h13------------11h13----
|--------------------------------------------
|--------------------------------------------
|--------------------------------------------

|-12------12-10p9----9-----------------------
|----14~----------12---10--------------------
|--------------------------------------------
|--------------------------------------------
|--------------------------------------------
|--------------------------------------------


SOLO
|--------------------------------------------
|--------------------------------------------
|----------------------------------------9---
|-11b12r11-11b12r11----11b12r11-11b12r11-----
|-------------------12-----------------------
|--------------------------------------------

|----------------------------------------------------
|----------------------------------------------------
|----------12----------9-----------------------------
|-11b12r11----11b12r11---11b12r11--11b12r11-----9b11-
|-------------------------------------------12-------
|----------------------------------------------------
Rhythm over solo.
|--------------------------------------------
|--------------------------------------------
|--------------------------------------------
|--7----0----4----0--------------------------
|--7----0----4----0--------------------------
|--7----0----4----0--------------------------

-------------------------------------------
TOCAR CHORUS DE NOVO
-------------------------------------------

FIM:
|--------------------------------------------
|--------------------------------------------
|--------------------------------------------
|-0------------------------------------------
|-0------------------------------------------
|-0------------------------------------------

-> algumas observações estão em inglês pois não fui eu que a fiz... 
Composição de Yellowcard
Colaboración y revision:
  • Camila Matos
41 reproducciones
    • ½ Tono
    • A
    • Bb
    • B
    • C
    • Db
    • D
    • Eb
    • E
    • F
    • F#
    • G
    • Ab
  • Adicionar à lista

    0 comentarios

    Ver todos os comentários

    ¿Conseguiste tocar?

    0 Tocaram 0 Ainda não

    Grave um vídeo tocando Gifts and Curses e nos envie!

    00:00 / 00:00
    outros vídeos desta música
    repetir qualidade Automático
    Outros vídeos desta música
    00:00 / 00:00
    Automático
    OK