Cifra Club

Aprenda

Grey

Yellowcard

Tablatura: Principal (guitarra)
tono: A#
Album: Lights and Sounds

The other tab for this had some faults in it, so I figured that I would go ahead and
correct them for you, so you don’t have to do it yourself.  I also added the guitar
one little solo part in the intro; the other tab did not have that.  Enjoy.  This
tab should be 100% correct.

Standard Tuning (EADGBE, low to high)

Intro

e|--------------------------------------------------------------|
B|--------------------------------------------------------------|
G|-----7--------------------------------------------------------| X1
D|-----7-x12----------------------------------------------------|
A|-----5--------------------------------------------------------|
E|--------------------------------------------------------------|

(Then come in with...)

Guitar 1
e|---5-5b~----5-5b-------5-5b~----5-5b--------------------------|
B|-6--------6------6---6--------6------6------------------------|
G|--------------------------------------------------------------| X2
D|--------------------------------------------------------------|
A|--------------------------------------------------------------|
E|--------------------------------------------------------------|

Listen to the song for strum patterns; it’s easy to pick up
Guitar 2
e|--------------------------------------------------------------|
B|--------------------------------------------------------------|
G|-----7--------------------------------------------------------| X2
D|-----7-x12--8-------------------------------------------------|
A|-----5------8-x12---------------------------------------------|
E|------------6-------------------------------------------------|

Verse

e|--------------------------------------------------------------|
B|--------------------------------------------------------------|
G|-----7~-------------------------------------------------------| X1
D|-----7~-------------------------------------------------------|
A|-----5~-------------------------------------------------------|
E|--------------------------------------------------------------|

Pre Chorus
                              (Listen for strumming on last part)
e|---------------------------------------------------------------|
B|---------------------------------------------------------------|
G|-----10------9-------------------------------------------------| x1
D|-----10-x16--10-x16--5------8------8---------------------------|
A|-----8-------7-------5-x16--8-x16--8-x6------------------------|
E|---------------------3------6------6---------------------------|

Chorus

It’s all gone grey; it’s all gone grey...
e|--------------------------------------------------------------|
B|--------------------------------------------------------------|
G|-----7--------------------------------------------------------| X2
D|-----7-x12--8-------------------------------------------------|
A|-----5------8-x12---------------------------------------------|
E|------------6-------------------------------------------------|

Verse

I found telling you the truth the hardest thing...
e|--------------------------------------------------------------|
B|--------------------------------------------------------------|
G|-----7~-------------------------------------------------------| X1
D|-----7~-------------------------------------------------------|
A|-----5~-------------------------------------------------------|
E|--------------------------------------------------------------|

Pre Chorus
                              (Listen for strumming on last part)
e|---------------------------------------------------------------|
B|---------------------------------------------------------------|
G|-----10------9-------------------------------------------------| x1
D|-----10-x16--10-x16--5------8------8---------------------------|
A|-----8-------7-------5-x16--8-x16--8-x6------------------------|
E|---------------------3------6------6---------------------------|

Bridge

Given one more try, I don’t know if I would stay...
e|---------------------------------------------------------------|
B|---------------------------------------------------------------|
G|------------5------7-------------------------------------------|
D|-----5------5-x16--7-x16--8------------------------------------| x2
A|-----5-x16--3------5------8-x16--------------------------------|
E|-----3--------------------6------------------------------------|

Post-Bridge

I know every last regret inside of me is my own...
e|---------------------------------------------------------------|
B|---------------------------------------------------------------|
G|---7~----5~----------------------------------------------------| x1
D|---7~----5~---5~---8~------------------------------------------|
A|---5~----3~---5~---8~------------------------------------------|
E|--------------3~---6~------------------------------------------|

Pre Chorus
                              (Listen for strumming on last part)
e|---------------------------------------------------------------|
B|---------------------------------------------------------------|
G|-----10------9-------------------------------------------------| x1
D|-----10-x16--10-x16--5------8------8---------------------------|
A|-----8-------7-------5-x16--8-x16--8-x6------------------------|
E|---------------------3------6------6---------------------------|

Bridge

Given one more try, I don’t know if I would stay...
e|---------------------------------------------------------------|
B|---------------------------------------------------------------|
G|------------5------7-------------------------------------------|
D|-----5------5-x16--7-x16--8------------------------------------| x3
A|-----5-x16--3------5------8-x16--------------------------------|
E|-----3--------------------6------------------------------------|

Last Chorus

Guitar 1
e|---5-5b~----5-5b-------5-5b~----5-5b--------------------------|
B|-6--------6------6---6--------6------6------------------------|
G|--------------------------------------------------------------| X4
D|--------------------------------------------------------------|
A|--------------------------------------------------------------|
E|--------------------------------------------------------------|

Guitar 2
It’s all gone grey; it’s all gone grey...
e|--------------------------------------------------------------|
B|--------------------------------------------------------------|
G|-----7--------------------------------------------------------| X2
D|-----7-x12--8-------------------------------------------------|
A|-----5------8-x12---------------------------------------------|
E|------------6-------------------------------------------------|

Outro (While Ryan is still singing the chorus)

Guitar 2
                (Listen for strumming pattern)
e|--------------------------------------------------------------|
B|--------------------------------------------------------------|
G|---7------5-----------------------------7~--------------------| x1
D|---7-x12--5-x12--5------8------(end on)-7~--------------------|
A|---5------3------5-x12--8-x12-----------5~--------------------|
E|-----------------3------6-------------------------------------|

KEY: 

b - Bend
~ - Let Ring

This tab was transcribed 100% by Trevor Paxton.  Any questions, comments, or
Composição de Longineu Parsons III / Peter Mosely / Ryan Key / Sean Mackin
17 reproducciones
  • Simplificar cifra
    • ½ Tono
    • A
    • Bb
    • B
    • C
    • Db
    • D
    • Eb
    • E
    • F
    • F#
    • G
    • Ab
  • Adicionar à lista

    0 comentarios

    Ver todos os comentários
    00:00 / 00:00
    outros vídeos desta música
    repetir qualidade Automático
    Outros vídeos desta música
    00:00 / 00:00
    Automático
    OK