Cifra Club

Aprenda

How I Go

Yellowcard

Tab de bajo: Principal
album - lights and sounds

hey, im emma, this is my second tab, i also did a guitar tab for this, its version 4 on 
site.

i did all this by ear, the notes are right but there could be some little licks that iv 
out so just add em in if you hear one thats not on here, i think i got most of them tho.

it's fairly simple, theres just alot to remember but if u know the song and practice it 
be fine.

*
*
*
*
*


paper walls is gonna rock!!

standard tuning

play nothing for intro and first verse

first chorus

|----------------------------------|
|----------------------------------|
|----------------------------------|
|------0------2------4------5------|


2nd verse

|-4-2-1-----------------------------4---------------2----------------------|
|-------2---2---4---4---1---1---2-------2---2---4-------1---1--h4--p2---2--|
|--------------------------------------------------------------------------|
|--------------------------------------------------------------------------|


2nd chorus

|----------------------------------|
|----------------------------------|  x2
|------4-------------2------0------|
|-------------0--------------------|

let it flow...

|--------------------------------------------------------------|
|--------------------------------------------------------------|  x2
|------2------4------0-------------2------4------0------2------|
|---------------------------0----------------------------------|

play nothing for bridge

breakdown

||---------------------------------------|--------------------------------||
||---------------------------------------|--------------------------------||
||-2-0-------------------4---4---2---2---|---------------------4---4---2-2||
||-----4-0---0---0---0-------------------|---0---0---0---0----------------||
|
|cont'd
||-----------------------------------|------------------------------------||
||-----------------------------------|------------------------------------||
||---4---4---2---2---0---0-----------|---4---4---2---2---0---0---2---2----||
||---------------------------0---0---|----------------------------------0-||

play nothing through 3rd verse


chorus

|----------------------------------|
|----------------------------------|  x2
|------4-------------2------0------|
|-------------0--------------------|


let it flow...

|----------------------------------|----------------------------------|
|----------------------------------|----------------------------------|  x2
|------2------4------0-------------|------2------4------0------2------|
|---------------------------0------|----------------------------------|

mini breakdown

|----------------------------------|
|----------------------------------|
|--------------------0------2------|
|------0------4--------------------|

bridge

|----------------------------------|-------------------------------------|
|----------------------------------|-------------------------------------|x2
|------4------2------0-------------|------2------4------0------0h4-2-----|
|---------------------------0------|-------------------------------------|

end

|-------------|
|-------------|
|---2-0-------|
|-------4-0---|
Composição de Peter Mosely / Ryan Key
15 reproducciones

0 comentarios

Ver todos os comentários

¿Conseguiste tocar?

0 Tocaram 0 Ainda não

Grave um vídeo tocando How I Go e nos envie!

00:00 / 00:00
outros vídeos desta música
repetir qualidade Automático
Outros vídeos desta música
00:00 / 00:00
Automático
OK