Cifra Club

Aprenda

Keeper

Yellowcard

Tablatura: Principal (guitarra)
tono: D
drop D tunnig -e b g d a d
G1-Ryan Mendez
G2-Ryan Key

Intro
1.
Guitar1
|----------------9-----10----------------9------10-------------------|
|--------7------------------------7---------------------8-------8----|
|--------------------------------------------------------------------|
|---0-------0-------0-------0-------0-------0--------0-------0-------|2x
|--------------------------------------------------------------------|
|--------------------------------------------------------------------|

2.
Guitar1
|----------------9-----10----------------9------10-------------------|
|--------7------------------------7---------------------8-------8----|
|--------------------------------------------------------------------|
|---0-------0-------0-------0-------0-------0--------0-------0-------|2x
|--------------------------------------------------------------------|
|--------------------------------------------------------------------|

Guitar2
|--------------------------------------------------|  |------|
|--------------------------------------------------|  |------|
|--7777777--7777777---777777777777777--------------|  |--7---|
|--7777777--7777777---777777777777777--------------|2x|--7---|
|--5555555--xxxxxxx---xxxxxxxxxxxxxxx--------------|  |--5---|
|-----------7777777---555555555555555--------------|  |------|

Verse
Guitar

|-----------------------------------------------------|
|-----------------------------------------------------|  
|----7777-7777-7777-7777---7777-7777-7777-7777--------| 
|----7777-7777-7777-7777---7777-7777-7777-7777--------|2x
|----5555-5555-xxxx-xxxx---xxxx-xxxx-xxxx-xxxx--------|  
|--------------7777-7777---5555-5555-5555-5555--------| 

Post chorus

Guitar1
|--------------------------------------|
|--------------------------------------|
|-7-7-7-7-7-7-7-7-7-7-7-7-7-7-7-7-7-7--|
|-x-x-x-x-x-x-x-x-x-x-x-x-x-x-x-x-x-x--|
|-5-5-5-5-5-5-5-5-5-5-5-5-5-5-5-5-5-5--|
|--------------------------------------|

Guitar2
|--------------------------------------|
|--------------------------------------|
|-7-7-7-7-7-7-7-7-7-7-7-7-7-7-7-7-7-7--|
|-7-7-7-7-7-7-7-7-7-7-7-7-7-7-7-7-7-7--|
|-5-5-5-5-5-5-5-5-5-5-5-5-5-5-5-5-5-5--|
|--------------------------------------|

Chorus

G1

|---------------------------------------------------------|
|---------------------------------------------------------|
|-7777777777777777-77777777777777777---11-12-11-9-7777777-|
|-xxxxxxxxxxxxxxxx-xxxxxxxxxxxxxxxxx---x--x--x--x-xxxxxxx-|2x
|-5555555555555555-55555555555555555---9--10-9--7-5555555-|
|---------------------------------------------------------|

G2

|-------------------------------------------------------------|
|-------------------------------------------------------------|
|--7777777777777777-7777777777777777-44444444-55555555--------|
|--7777777777777777-7777777777777777-44444444-55555555--------|2x
|--5555555555555555-5555555555555555-22222222-33333333--------|
|-------------------5555555555555555--------------------------|

verse2

Guitar1
|----------------9-----10----------------9------10-------------------|
|--------7------------------------7---------------------8-------8----|
|--------------------------------------------------------------------|
|---0-------0-------0-------0-------0-------0--------0-------0-------|2x
|--------------------------------------------------------------------|
|--------------------------------------------------------------------|

Pre-
Guitar1
|--------------------------------------|
|--7--8--7---8--7---8---7---8---7--8---|
|--------------------------------------|
|--------------------------------------|
|--------------------------------------|
|--------------------------------------|

Guitar2
|--------------------------------------|
|--------------------------------------|
|-7-7-7-7-7-7-7-7-7-7-7-7-7-7-7-7-7-7--|
|-7-7-7-7-7-7-7-7-7-7-7-7-7-7-7-7-7-7--|
|-5-5-5-5-5-5-5-5-5-5-5-5-5-5-5-5-5-5--|
|--------------------------------------|

Repetir Chorus

quando..

Guitar1
|----------------9-----10----------------9------10-------------------|
|--------7------------------------7---------------------8-------8----|
|--------------------------------------------------------------------|
|---0-------0-------0-------0-------0-------0--------0-------0-------|5x
|--------------------------------------------------------------------|
|--------------------------------------------------------------------|

G2
|-----------------------------------|  |--------------------|
|-----------------------------------|  |--------------------|
|-7777777---------------------------|  |--------------------|
|-7777777-7777777-9999999--5555555--|2x|-2222222-4444444-5~-|
|-5555555-7777777-9999999--5555555--|  |-2222222-4444444-5~-|
|---------7777777-9999999--5555555--|  |-2222222-4444444-5~-|

repetir chorus

ponte..

G1
|--mtas vezes-----|
|-----------------|-----------------------------------|
|-----------------|-----------------------------------|
|-7---11--14---11-|--11--9---7----7-7-7-7-7-7-7-7-----|
|-x---x---x----x--|--x-s-x-s-x----x-x-x-x-x-x-x-x-----|
|-5---9---12---9--|--9---7---5----5-5-5-5-5-5-5-5-----|
|-----------------|-----------------------------------|

|--mtas vezes-----|
|-----------------|-----------------------------------|
|-----------------|-----------------------------------|
|-7---11--14---11-|--11-12-11-9-7---11-12-11-9-7---7~-|
|-x---x---x----x--|--x--x--x--x-x---x--x--x--x-x---x--|
|-5---9---12---9--|--9--10-9--7-5---9--10-9--7-5---5~-|
|-----------------|-----------------------------------|

G2
|-------------------------------------------------------------|  
|-------------------------------------------------------------|  
|-7-7-7-7-7-7-7-7-7-7-7-7-7-7-7-7-7-7-7-7-7-7-7-7-7-7-7-------|
|-7-7-7-7-7-7-7-7-7-7-7-7-7-7-7-7-7-7-7-7-7-7-7-7-7-7-7-------|
|-5-5-5-5-5-5-5-5-5-5-5-5-5-5-5-5-5-5-5-5-5-5-5-5-5-5-5-------|
|-------------------------------------------------------------| 

terminar com..

Guitar1
|----------------9-----10----------------9------10-------------------|
|--------7------------------------7---------------------8-------8----|
|--------------------------------------------------------------------|
|---0-------0-------0-------0-------0-------0--------0-------0-------|
|--------------------------------------------------------------------|
|--------------------------------------------------------------------|

|--------------------------------------|
|--7--8--7---8--7---8---7---8---7--8---|
|--------------------------------------|
|--------------------------------------|
|--------------------------------------|
|--------------------------------------|
Composição de Ryan Key
Colaboración y revision:
  • Richard Harrisson
80 reproducciones
    • ½ Tono
    • A
    • Bb
    • B
    • C
    • Db
    • D
    • Eb
    • E
    • F
    • F#
    • G
    • Ab
  • Adicionar à lista

    0 comentarios

    Ver todos os comentários
    00:00 / 00:00
    outros vídeos desta música
    repetir qualidade Automático
    Outros vídeos desta música
    00:00 / 00:00
    Automático
    OK