Cifra Club

Aprenda

Light Up The Sky

Yellowcard

Tablatura: Versão 3 (guitarra)
tono: D
Tabbed by: Anthinator
Email: *

The other tab is pretty awful and I'm quite sure this is correct. The lead guitar
parts I still haven't worked out yet but once I do I'll add it to this tab. Enjoy!

Tuning: E A D G b e

INTRO: 1X
e|-0-------------------------0-----------------------------------------------|
B|-1-1-1-1-1-1-1-1-1-1-1-1-1-1-1-1-1-1-1-1-1-1-1-----------------------------|
G|-2-2-2-2-0-2-2-2-2-2-0-0-0-2-2-2-2-2-0-0-0-0-0-----------------------------|
D|-2-2-2-2-0-0-0-0-0-0-0-0-0-2-2-2-2-0-0-0-0-0-0-----------------------------|
A|-0-0-0-3-0-0-0-0-0-0-x-x-x-0-0-0-3-0-x-x-x-x-x-----------------------------|
E|---------------------3-3-3-----------3-3-3-3-3-----------------------------|

VERSE 1: 4x
e|-0-------------------------------------------------------------------------|
B|-1-1-1-1-1-1-1-1-1-1-1-1-1-------------------------------------------------|
G|-2-2-2-2-0-2-2-2-2-2-0-0-0-------------------------------------------------|
D|-2-2-2-2-0-0-0-0-0-0-0-0-0-------------------------------------------------|
A|-0-0-0-3-0-0-0-0-0-0-x-x-x-------------------------------------------------|
E|---------------------3-3-3-------------------------------------------------|

PRE-CHORUS: 3X              4TH TIME
e|-0----------------------|--------------------------------------------------|
B|-1-1-1-1-1-1-1-1-1-1----|-1-1-1-1-1-1-1-1-1-1-1-1-1-1----------------------|
G|-2-2-2-2-0-2-2-2-2-2----|-2-2-2-2-0-2-2-2-2-2-2-2-2-2----------------------|
D|-2-2-2-2-0-0-0-0-0-0----|-2-2-2-2-0-0-0-0-0-0-0-0-0-0----------------------|
A|-0-0-0-3-0-x-x-x-x-x----|-0-0-0-3-0-x-x-x-x-x-x-x-x-x----------------------|
E|-----------3-3-3-3-3----|-----------3-3-3-3-3-3-3-3-3----------------------|

CHORUS: 2X
e|---------------------------------------------------------------------------|
B|---------------------------------------------------------------------------|
G|---------------------------------------------------------------------------|
D|-2-2-2-2-2-2-2-2-3-3-3-3-3-3-3-3-5-5-5-5-5-5-5-5-3-3-3-3-3-3-3-3-----------|
A|-3-3-3-3-3-3-3-3-3-3-3-3-3-3-3-3-5-5-5-5-5-5-5-5-3-3-3-3-3-3-3-3-----------|
E|-0-0-0-0-0-0-0-0-1-1-1-1-1-1-1-1-3-3-3-3-3-3-3-3-1-1-1-1-1-1-1-1-----------|

INTRO: 1X
e|-0-------------------------0-----------------------------------------------|
B|-1-1-1-1-1-1-1-1-1-1-1-1-1-1-1-1-1-1-1-1-1-1-1-----------------------------|
G|-2-2-2-2-0-2-2-2-2-2-0-0-0-2-2-2-2-2-0-0-0-0-0-----------------------------|
D|-2-2-2-2-0-0-0-0-0-0-0-0-0-2-2-2-2-0-0-0-0-0-0-----------------------------|
A|-0-0-0-3-0-0-0-0-0-0-x-x-x-0-0-0-3-0-x-x-x-x-x-----------------------------|
E|---------------------3-3-3-----------3-3-3-3-3-----------------------------|

VERSE 2: 1X
e|-0~------------------------------------------------------------------------|
B|-1~------------------------------------------------------------------------|
G|-2~-----------------------------------------------X-X-X-X-X-X-X------------|
D|-2~-----------------------------------------------X-X-X-X-X-X-X------------|
A|-0~-----------------------------------------------X-X-X-X-X-X-X------------|
E|--------------------------------------------------X-X-X-X-X-X-X------------|

PRE-CHORUS: 4X             
e|-0-------------------------------------------------------------------------|
B|-1-1-1-1-1-1-1-1-1-1-------------------------------------------------------|
G|-2-2-2-2-0-2-2-2-2-2-------------------------------------------------------|
D|-2-2-2-2-0-0-0-0-0-0-------------------------------------------------------|
A|-0-0-0-3-0-x-x-x-x-x-------------------------------------------------------|
E|-----------3-3-3-3-3-------------------------------------------------------|

CHORUS: 2X
e|---------------------------------------------------------------------------|
B|---------------------------------------------------------------------------|
G|---------------------------------------------------------------------------|
D|-2-2-2-2-2-2-2-2-3-3-3-3-3-3-3-3-5-5-5-5-5-5-5-5-3-3-3-3-3-3-3-3-----------|
A|-3-3-3-3-3-3-3-3-3-3-3-3-3-3-3-3-5-5-5-5-5-5-5-5-3-3-3-3-3-3-3-3-----------|
E|-0-0-0-0-0-0-0-0-1-1-1-1-1-1-1-1-3-3-3-3-3-3-3-3-1-1-1-1-1-1-1-1-----------|

POST-CHORUS: 2X
e|---------------------------------------------------------------------------|
B|---------------------------------------------------------------------------|
G|-5-5-5-5-5-5-5-5-5-5-5-5-5-5-5-5-7-7-7-7-7-7-7-7-5-5-5-5-5-5-5-5-----------|
D|-5-5-5-5-5-5-5-5-3-3-3-3-3-3-3-3-5-5-5-5-5-5-5-5-3-3-3-3-3-3-3-3-----------|
A|-3-3-3-3-3-3-3-3-3-3-3-3-3-3-3-3-5-5-5-5-5-5-5-5-3-3-3-3-3-3-3-3-----------|
E|---------------------------------------------------------------------------|

BRIDGE: 1X LIGHT PALM MUTE
e|---------------------------------------------------------------------------|
B|---------------------------------------------------------------------------|
G|---------------------------------------------------------------------------|
D|---------------------------------------------------------------------------|
A|-3-3-3-3-3-3-3-3-3-3-3-3-3-3-3-3-3-3-3-3-3-3-3-3-3-3-3-3-3-3-3-------------|
E|-5-5-5-5-5-5-5-5-3-3-3-3-3-3-3-0-0-0-0-0-0-0-0-1-1-1-1-1-1-1-1-------------|

e|---------------------------------------------------------------------------|
B|---------------------------------------------------------------------------|
G|---------------------------------------------------------------------------|
D|-----------------5-5-5-5-5-5-5---------------------------------------------|
A|-3-3-3-3-3-3-3-3-3-3-3-3-3-3-3-3-3-3-3-3-3-3-3-3-3-3-3-3-3-3-3-------------|
E|-5-5-5-5-5-5-5-5-3-3-3-3-3-3-3-0-0-0-0-0-0-0-0-1-1-1-1-1-1-1-1-------------|

BRIDGE CONT'D: 2X
e|---------------------------------------------------------------------------|
B|---------------------------------------------------------------------------|
G|---------------------------------2-2-2-2-2-2-2-2---------------------------|
D|---------------------------------2-2-2-2-2-2-2-2-5-5-5-5-5-5-5-5-----------|
A|-3-3-3-3-3-3-3-3-3-3-3-3-3-3-3-3-0-0-0-0-0-0-0-0-5-5-5-5-5-5-5-5-----------|
E|-1-1-1-1-1-1-1-1-0-0-0-0-0-0-0-0-----------------3-3-3-3-3-3-3-3-----------|

BREAKDOWN: 4X PALM MUTE
e|---------------------------------------------------------------------------|
B|---------------------------------------------------------------------------|
G|-5-5-5-5-5-5-5-5-5-5-5-5-5-5-5-5-7-7-7-7-7-7-7-7-5-5-5-5-5-5-5-5-----------|
D|-5-5-5-5-5-5-5-5-3-3-3-3-3-3-3-3-5-5-5-5-5-5-5-5-3-3-3-3-3-3-3-3-----------|
A|-3-3-3-3-3-3-3-3-3-3-3-3-3-3-3-3-5-5-5-5-5-5-5-5-3-3-3-3-3-3-3-3-----------|
E|---------------------------------------------------------------------------|

CHORUS: 2X
e|---------------------------------------------------------------------------|
B|---------------------------------------------------------------------------|
G|---------------------------------------------------------------------------|
D|-2-2-2-2-2-2-2-2-3-3-3-3-3-3-3-3-5-5-5-5-5-5-5-5-3-3-3-3-3-3-3-3-----------|
A|-3-3-3-3-3-3-3-3-3-3-3-3-3-3-3-3-5-5-5-5-5-5-5-5-3-3-3-3-3-3-3-3-----------|
E|-0-0-0-0-0-0-0-0-1-1-1-1-1-1-1-1-3-3-3-3-3-3-3-3-1-1-1-1-1-1-1-1-----------|

POST-CHORUS: 2X
e|---------------------------------------------------------------------------|
B|---------------------------------------------------------------------------|
G|-5-5-5-5-5-5-5-5-5-5-5-5-5-5-5-5-7-7-7-7-7-7-7-7-5-5-5-5-5-5-5-5-----------|
D|-5-5-5-5-5-5-5-5-3-3-3-3-3-3-3-3-5-5-5-5-5-5-5-5-3-3-3-3-3-3-3-3-----------|
A|-3-3-3-3-3-3-3-3-3-3-3-3-3-3-3-3-5-5-5-5-5-5-5-5-3-3-3-3-3-3-3-3-----------|
E|---------------------------------------------------------------------------|

INTRO: 2X
e|-0-------------------------0-----------------------------------------------|
B|-1-1-1-1-1-1-1-1-1-1-1-1-1-1-1-1-1-1-1-1-1-1-1-----------------------------|
G|-2-2-2-2-0-2-2-2-2-2-0-0-0-2-2-2-2-2-0-0-0-0-0-----------------------------|
D|-2-2-2-2-0-0-0-0-0-0-0-0-0-2-2-2-2-0-0-0-0-0-0-----------------------------|
A|-0-0-0-3-0-0-0-0-0-0-x-x-x-0-0-0-3-0-x-x-x-x-x-----------------------------|
E|---------------------3-3-3-----------3-3-3-3-3-----------------------------|

| /  slide up
| \  slide down
| h  hammer-on
| p  pull-off
| ~  vibrato
| +  harmonic
| x  Mute note
===============================================================================
2 reproducciones
    • ½ Tono
    • A
    • Bb
    • B
    • C
    • Db
    • D
    • Eb
    • E
    • F
    • F#
    • G
    • Ab
  • Adicionar à lista

    0 comentarios

    Ver todos os comentários

    ¿Conseguiste tocar?

    0 Tocaram 0 Ainda não

    Grave um vídeo tocando Light Up The Sky e nos envie!

    00:00 / 00:00
    outros vídeos desta música
    repetir qualidade Automático
    Outros vídeos desta música
    00:00 / 00:00
    Automático
    OK