Cifra Club

Aprenda

Light Up The Sky

Yellowcard

Tablatura: Versão 2 (guitarra)
tono: D
tabbed: HurricaneSG
email: *

You may listen to the song @ *. Enjoy!


Intro/Verse:

Guitar 1 - find the strumming yourself, it's pretty easy.

    Am Dsus G (acoustic chords)
e| |----------------------------------|
B| |----------------------------------|
G| |-5-5-5----------------------------| 
D| |-2-0-0----------------------------|
A| |-0-5-x----------------------------|
D| |-----5----------------------------|

    Am Dsus
e| |----------------------------------|
B| |----------------------------------|
G| |-5-5------------------------------|  (at some parts it's just 
D| |-2-0------------------------------|   these chords)
A| |-0-5------------------------------|
D| |----------------------------------|

Guitar 2   (w/ wah-wah) 
         
e| |---------------|
B| |-10--12--13----|
G| |------------12~| 2x  
D| |---------------|       *
A| |---------------|
D| |---------------|

e| |------------------|
B| |--10--------------|
G| |-----9------------| 1x  *
D| |--------12-10-9---|
A| |------------------|
D| |------------------|

e| |---------------|
B| |-10--12--13----|
G| |------------12~| 2x
D| |---------------|
A| |---------------|
D| |---------------|

Chorus:

Guitar 1 (each chord is strummed 8 times) 
e| |----------------------------------|
B| |----------------------------------|
G| |----------------------------------| 2x  *
D| |--2--3--5--3----------------------| 
A| |--3--3--5--3----------------------|
D| |--2--3--5--3----------------------|

Guitar 2  
           3x                    1x
e| |------------------|--10-12-10------------|
B| |----13-12-13-12---|13--------13-12-------| 
G| |----------------12|---------------12-----| 2x *
D| |-10~--------------|----------------------| 
A| |------------------|----------------------|
D| |------------------|----------------------|

Verse        *

Violin - played during the 2nd verse 
e| |----------------------------------|
B| |----------------------------------|
G| |--9--9-7-5/7-7-5-4/5/2------------| 2x
D| |----------------------------------|      *
A| |----------------------------------|
D| |----------------------------------|

Chorus *

Guitar 2  
           3x                    1x
e| |------------------|--10-12-10------------|
B| |----13-12-13-12---|13--------13-12-------| 
G| |----------------12|---------------12-----| 2x *
D| |-10~--------------|----------------------| 
A| |------------------|----------------------|
D| |------------------|----------------------|

e| |----------------------------------|
B| |-13-13--13-13--13-13--13-13-------|  
G| |----------------------------------| 4x *
D| |----------------------------------|
A| |----------------------------------|
D| |----------------------------------|


Guitar 2:    (/w delay)
e| |-10-----------------12----10------|
B| |-------13-------------------------|  
G| |----------------------------------| 3x * 
D| |----------------------------------|      (only guitar 2 + bass)    
A| |----------------------------------|
D| |----------------------------------|

Guitar 1 
e| |----------------------------------|
B| |----------------------------------|
G| |----------------------------------|      *
D| |--3--2--7--5----------------------| 2x
A| |--3--2--7--5----------------------|
D| |--3--2--7--5----------------------|

Guitar 2:
e| |--------------------|--------------|
B| |------12-13-13-13---|--------------|  
G| |------------------12|-----?--------|  * 
D| |--10~---------------|--------------|           
A| |--------------------|--------------|          
D| |--------------------|--------------|

Guitar 2
e| |----------------------------------|
B| |----------------------------------|
G| |--5~------------------------------|  *
D| |--5~------------------------------|
A| |--3~------------------------------|
D| |----------------------------------|

Guitar 1 (picked 8times each)  
e| |----------------------------------|
B| |----------------------------------|
G| |----------------------------------| 4x  *
D| |--5--3--2--3----------------------|
A| |--3--3--3--3----------------------|
D| |----------------------------------|
p.m   .  .  .  .

Chorus * (guitar 2 of the 2nd chorus)

Outro (same chords as Verse) *

End on:

Guitar 1:
e| |-------|
B| |-------|
G| |-------|  
D| |--5~---|
A| |--5~---|
D| |--5~---|
3 reproducciones
    • ½ Tono
    • A
    • Bb
    • B
    • C
    • Db
    • D
    • Eb
    • E
    • F
    • F#
    • G
    • Ab
  • Adicionar à lista

    0 comentarios

    Ver todos os comentários

    ¿Conseguiste tocar?

    0 Tocaram 0 Ainda não

    Grave um vídeo tocando Light Up The Sky e nos envie!

    00:00 / 00:00
    outros vídeos desta música
    repetir qualidade Automático
    Outros vídeos desta música
    00:00 / 00:00
    Automático
    OK