Cifra Club

Aprenda

Light Up The Sky

Yellowcard

Tab de bajo: Principal
Album:Paper Walls
Date Tabbed:August,2007
Guitar Tabber:Ryan Manongdo/17/m/Montalban Rizal
              *(Friendster&YM)
              
For your questions or suggestions,just post in friendster comment,PM or mail me.

*:
^ - popping
p - pull-off
h - hammer-on
~ - let it ring

*:(Standard)Normal

Verse 1:No Bass

Pre-Chorus 1:We already know...
Bass Enters
G|---------7-------------------7-------7h9p7------------7-----------------7--------------|
D|-77-7-10----555555---77-7-10---55555----------77-7-10---55555---77-7-10---5555555555---|
A|---------------------------------------------------------------------------------------|
E|---------------------------------------------------------------------------------------|

Chorus:Let me light up...
G|--------------------------|
D|--------------------------| 2x
A|--------------------------|
E|-00000-11111-33333-1111---|

Pre-Verse 2:
G|------------7777777--------------7----------|
D|-7777-7-10----------55---77-7-10---555555---|
A|--------------------------------------------|
E|--------------------------------------------|

Verse 2:I can't find a....
G|-----------777777----------------77777------------------7777-11p9-------------777777------|
D|-7777-7-10--------55---7777-7-10-------55---7777-7-10---------------7777-7-10--------55---|
A|------------------------------------------------------------------------------------------|
E|------------------------------------------------------------------------------------------|
                                                               ^
Pre-Chorus 2:I just wanna be...
G|--------------------------------------------------------------------------|
D|--------------------------------55-3-2------------------------------------|
A|------3-5--------------3-5--------------------3-5-------------3-5---------|
E|-55-5-----33333---55-5-----3333----------55-5-----3333---55-5-----33333---|

Chorus 2:Let me light up the...
G|--------------------------------------------------------------------------------------------------------|
D|--------------------------------------------------------------------------------------------------------|
A|----------------------------------------------------------5555-33333-55555------------------------------|
E|-0000-1111-33333-11111----00000-11111-33333-55555----0000---------------------00000-11111-33333-11111---|

Bridge:Let me light up the...
G|-------------------------------------------------|
D|-7777-5555--------------77777-55555--------------|
A|------------3333-55555--------------3333-55555---|
E|-------------------------------------------------|

And it's still...
G|------------------------------------------------------------|
D|------------------------------------------------------------|
A|-------------00000---------------------00000-----------3~---|
E|-11111-00000-------33333---11111-00000-------33333333-------|

Bass Enters:Let me light up the....
G|---------------------------------------------------------------|
D|---------------------------------------------------------------|
A|-7777-8888-1010101010-121212---7777-8888-10101010-1212121212---|
E|---------------------------------------------------------------|

Repeat Chorus 2:

Outro:
G|---------777777--------------7-------------------77777-------------7------|
D|-7777-10--------55---77-7-10---55555---7777-7-10-------55--77-7-10---5~---|
A|--------------------------------------------------------------------------|
E|--------------------------------------------------------------------------|

End...
18 reproducciones

0 comentarios

Ver todos os comentários

¿Conseguiste tocar?

0 Tocaram 0 Ainda não

Grave um vídeo tocando Light Up The Sky e nos envie!

00:00 / 00:00
outros vídeos desta música
repetir qualidade Automático
Outros vídeos desta música
00:00 / 00:00
Automático
OK