Cifra Club

Aprenda

October Nights

Yellowcard

Tab de bajo: Principal
Album - "One For The Kids"
Tabber - Justin Bolton
Site - *

**No Bass At The Starting Just A Guitar Intro**

**Intro**
G:|------------------------------------------------------------------|
D:|------------------------------------------------------------------|
A:|-------------------------------------------222222222--------------|X2
D:|-000000000000007777777777777777555555555555---------55555555------|
**Verse**
G:|------------------------------------------------------------------|
D:|------------------------------------------------------------------|
A:|------4--------------222-222-444-444------------------------------|
D:|-0---------5----4--------------------444-444-555-555--------------|
**Verse (cont.)**
G:|------------------------------------------------------------------|
D:|----00H2-22-222----00H2-22-222------------------------------------|
A:|-222------------222-----------------------------------------------|
D:|-------------------------------444-444555-555000-000-000-000-12/--|
**Verse (cont.)**
G:|------------------------------------------------------------------|
D:|------------------------------------------------------------------|
A:|------------------------------------------------------------------|
D:|-44444444-55555555-0000000000000000-------------------------------|
**VeRsE (CoNt.)**
G:|------------------------------------------------------------------|
D:|------------------------------------------------------------------|
A:|--------------------------------------------------------22222222--|
D:|-444-444555-555000-000-000-000-000-12/-44444444-55555555---------5|
**ChORuS**
G:|------------------------------------------------------------------|
D:|------------------------------------------------------------------|
A:|------------------------------------------------------------------| X4
D:|-5-5-55-5555-0000000000000000-------------------------------------|
**PrE-vErSe**
G:|------------------------------------------------------------------|
D:|------------------------------------------------------------------|
A:|-22-44-----22-44----22-44----22-44--------------------------------|
D:|-------00--------55-------00-------55-----------------------------|
**BaSs SoLo**
G:|----------------------5-------------------------------------------|
D:|------------------------------------------------------------------|
A:|-222----444----55----------222----444-----------------------------|
D:|-----------------------------------------444----5-----------------|
**BrIdGe**(REALLY FAST ALMOST 32ND NOTES)
G:|------------------------------------------------------------------|
D:|------------------------------------------------------------------|
A:|-22-2222----------------------------------------------------------|X2
D:|--------22-2222-44-4444-4444-55555--------------------------------|
**2nD BaSs SoLo**
G:|------------------------------------------------------------------|
D:|------------------------------------------------------------------|
A:|------------------------------------------------------------------|X6
D:|-0000000055555555-------------------------------------------------|
**(CoNt)**
G:|------------------------------------------------------------------|
D:|------------------------------------------------------------------|
A:|------------------------------------------------------------------|
D:|-&&&00000000055555555---------------------------------------------|
**(CoNt)**
G:|------------------------------------------------------------------|
D:|------------------------------------------------------------------|
A:|------------------------------------------------------------------|X4
D:|-444-444-555-555--------------------------------------------------|
**InTrO**
**cHoRuS**
**InTrO**
 And thats it, any questions, email me at *
-PeacE-
Composição de Ryan Key / Yellowcard
17 reproducciones

0 comentarios

Ver todos os comentários

¿Conseguiste tocar?

0 Tocaram 0 Ainda não

Grave um vídeo tocando October Nights e nos envie!

00:00 / 00:00
outros vídeos desta música
repetir qualidade Automático
Outros vídeos desta música
00:00 / 00:00
Automático
OK