Cifra Club

One Year, Six Months

Yellowcard

Cifrado: Principal (guitarra y guitarra eléctrica)
tono: C
Intro (VIOLAO) 2x
e|-15-15-15-13-12-10-10-10-13-13-13-12-10-8-8-8-----------------------------|
B|--0--0-0--0--0--0--0--0---0-0--0--0--0--0-0-0-----------------------------|
G|--------------------------------------------------------------------------|
D|--------------------------------------------------------------------------|
A|--------------------------------------------------------------------------|
E|--------------------------------------------------------------------------|

Continuação...
e|-15-15-15-13-12-10-10----12-12-8-8-7-7------------------------------------|
B|--0--0-0--0--0--0--0-----0--0-0-0-0-0-------------------------------------|
G|--------------------------------------------------------------------------|
D|--------------------------------------------------------------------------|
A|--------------------------------------------------------------------------|
E|--------------------------------------------------------------------------|

Verso 4x
e|--------------------------------------------------------------------------|
B|--------------------------------------------------------------------------|
G|----7----7---7---7---7---7---7---7----------------------------------------|
D|----------------------------0---0-----------------------------------------|
A|-10---10---9---9---7---7--------------------------------------------------|
E|--------------------------------------------------------------------------|

Refrão 4x
e|-3*---3*---3*---3*|
B|-3*---3*---3*---3*|
G|----------------2*|
D|-----------2*-----|
A|-----------2*-----|
E|-3*---2*---0*-----|    ps: * = tocar com o tempo de cada acorde.



Intro 1x

Verso 4x

Refrão 4x


Solo do meio da música 4x
e|-15-15-15-13-12-10-10-10-13-13-13-12-10-8-8-8-----------------------------|
B|--0--0-0--0--0--0--0--0---0-0--0--0--0--0-0-0-----------------------------|
G|--------------------------------------------------------------------------|
D|--------------------------------------------------------------------------|
A|--------------------------------------------------------------------------|
E|--------------------------------------------------------------------------|

Continuação...
e|-15-15-15-13-12-10-10--12---12-12-12--10-10-10----------------------------|
B|--0--0-0--0--0--0--0---0----0---0--0--0---0--0----------------------------|
G|--------------------------------------------------------------------------|
D|--------------------------------------------------------------------------|
A|--------------------------------------------------------------------------|
E|--------------------------------------------------------------------------|


Solo do violino faz Refão 4x

Refrão 5x

FIM
Composición de Peter Mosely / Yellowcard
Colaboración y revisión:
  • Lucas Chang
88 vistas
  • Simplificar cifrado
    • ½ Tono
    • A
    • Bb
    • B
    • C
    • Db
    • D
    • Eb
    • E
    • F
    • F#
    • G
    • Ab
  • Agregar a la lista

    0 comentarios

    Ver todos los comentarios

    ¿Lograste tocar?

    2 Tocaron 0 Aún no

    ¡Graba un video tocando One Year, Six Months y envíanoslo!

    00:00 / 00:00
    Outros vídeos desta música
    Repetir Calidad Automático
    Outros vídeos desta música
    00:00 / 00:00
    Automático
    OK