Cifra Club

Aprenda

Only One

Yellowcard

Tablatura: Principal (guitarra)
tono: E
C#m                       A9
Broken this fragile thing now
      B                           A9
And I can't, I can't pick up the pieces
         C#m                 A9
And I've thrown my words all around
      B                          A9
But I can't, I can't give you a reason
          A9
I feel so broken up (so broken up)
    C#m
And I give up (I give up)
E                              B
I just want to tell you so you know
       C#m           A9                           E
Here I go, scream my lungs out and try to get to you
           B    B7
You are my only one
      C#m              A9                            E
I let go, there's just no one that gets me like you do
           B        B7
You are my only, my only one

C#m                       A9
Made my mistakes, let you down
      B                           A9
And I can't, I can't hold on for too long
         C#m                 A9
Ran my whole life in the ground
      B                          A9
And I can't, I can't get up when you're gone

          A9
And something's breaking up (breaking up)
    C#m
I feel like giving up (like giving up)
E                              B
I won't walk out until you know

       C#m           A9                           E
Here I go, scream my lungs out and try to get to you
           B    B7
You are my only one
      C#m              A9                            E
I let go, there's just no one that gets me like you do
           B
You are my only, my only one

(solo 2x) C#m A E B

       C#m           A9
Here I go so dishonestly
           E            B    B7
Leave a note for you my only one
      C#m              A9
And I know you can see right through me
           E         B         B7
So let me go and you will find someone

       C#m           A9                           E
Here I go, scream my lungs out and try to get to you
           B    B7
You are my only one
      C#m              A9                   E
I let go, there's just no one, no one like you
           B
You are my only, my only one

( C#m A9 E B C )  (2x)
My only one
My only one
My only one
You are my only, my only one

(solo)
E |-----2-4-------7-7--5-----------2-4------4-4--2-2-------
B |--5-------5-5-----------2p5-2p5-------5-5---------------
G |--------------------------------------------------------
D |--------------------------------------------------------
A |--------------------------------------------------------
E |--------------------------------------------------------

E |-------7-7-5----7-5-----4h5-4h5-4------4h5-4-------4h5-4---------------
B |---5-5---------5------------------5----------5-----------5----5-7-5-7--
G |------------------------------------6----------6-----------6-----------
D |-----------------------------------------------------------------------
A |-----------------------------------------------------------------------
E |-----------------------------------------------------------------------

( B )
Composição de Peter Mosely / Yellowcard
Colaboración y revision:
942 reproducciones
    • ½ Tono
    • A
    • Bb
    • B
    • C
    • Db
    • D
    • Eb
    • E
    • F
    • F#
    • G
    • Ab
  • Adicionar à lista

    0 comentarios

    Ver todos os comentários

    ¿Conseguiste tocar?

    8 Tocaram 0 Ainda não

    Grave um vídeo tocando Only One e nos envie!

    00:00 / 00:00
    outros vídeos desta música
    repetir qualidade Automático
    Outros vídeos desta música
    00:00 / 00:00
    Automático
    OK