Cifra Club

Aprenda

Powder

Yellowcard

Tablatura: Principal (guitarra)
tono: D
Intro 6x:
E|----------------------------------------------|
B|--------------------m-m--m--------------------|
G|------m--m-m-m---m--2-2--2--m--m--m---m-------|
D|-5-5--5--3-3-3---3--2-2--2--1--1--1---1-------|
A|-5-5--5--3-3-3---3--0-0--0--1--1--1---1-------|
D|-5-5--5--3-3-3---3--x-x--x--1--1--1---1-------|

Antes do pré refrão:
E|-----------------------------------------------|
B|-----------------------------------------------|
G|-m-m-m-m---------------------------------------|
D|-1-1-1-1----Toca várias vezes------------------|
A|-1-1-1-1---------------------------------------|
D|-1-1-1-1---------------------------------------|

Pre- Refrão:
E|---3x-3x--3x--3x------------------------------------------------------|
B|---m---m---m---m--3x--3x--3x--3x--3x--3x--3x--3x----------------------|
G|-3-3-3-3-3-3-3-3---m---m---m---m---m---m---m---m----------------------|
D|-3-3-3-3-3-3-3-3-3-3-3-3-3-3-3-3-1-1-1-1-1-1-1-1-33--33--33--33--3333-|
A|-1-1-1-1-3-3-3-3-3-3-3-3-3-3-3-3-1-1-1-1-1-1-1-1-33--33--33--33--3333-|
D|-x-x-x-x-x-x-x-x-3-3-3-3-3-3-3-3-1-1-1-1-1-1-1-1-33--33--33--33--3333-|

Refrão:
E|-----------------------------------------------|
B|-----------------------------------------------|
G|-3-3-3-3---------------------------------------|
D|-3-3-3-3--3-3-3-3--1-1-1--3-3-3----------------|
A|-1-1-1-1--3-3-3-3--1-1-1--3-3-3----------------|
D|-x-x-x-x--3-3-3-3--1-1-1--3-3-3----------------|

E|----------------------------------------------|
B|--------------------m-m--m--------------------|
G|-m-m--m--m-m-m---m--2-2--2--m--m--m---m-------|
D|-5-5--5--3-3-3---3--2-2--2--1--1--1---1-------|
A|-5-5--5--3-3-3---3--0-0--0--1--1--1---1-------|
D|-5-5--5--3-3-3---3--x-x--x--1--1--1---1-------|

Riff:
E|----------------------------------------------------------------|
B|----------------------------------------------------------------|
G|----------------------------------------------mmmmmmm-----------|
D|-----mm--88---------mm-77---------mm-1010-----1-1-1-1-----------|
A|-mm--55-----55---mm-88-----88-mm--88-------88-1-1-1-1-----------|
D|-55--------------77-----------77--------------1-1-1-1-----------|

Pre- Refrão:
E|---3x-3x--3x--3x------------------------------------------------------|
B|---m---m---m---m--3x--3x--3x--3x--3x--3x--3x--3x----------------------|
G|-3-3-3-3-3-3-3-3---m---m---m---m---m---m---m---m----------------------|
D|-3-3-3-3-3-3-3-3-3-3-3-3-3-3-3-3-1-1-1-1-1-1-1-1-33--33--33--33--3333-|
A|-1-1-1-1-3-3-3-3-3-3-3-3-3-3-3-3-1-1-1-1-1-1-1-1-33--33--33--33--3333-|
D|-x-x-x-x-x-x-x-x-3-3-3-3-3-3-3-3-1-1-1-1-1-1-1-1-33--33--33--33--3333-|

Refrão:
E|-----------------------------------------------|
B|-----------------------------------------------|
G|-3-3-3-3---------------------------------------|
D|-3-3-3-3--3-3-3-3--1-1-1--3-3-3----------------|
A|-1-1-1-1--3-3-3-3--1-1-1--3-3-3----------------|
D|-x-x-x-x--3-3-3-3--1-1-1--3-3-3----------------|

Junto com o violino:
E|-----------------------------------------------|
B|-----------------------------------------------|
G|-3-3-3-3---------------------------------------|
D|-3-3-3-3--3-3-3-3--5--3--1--3------------------|
A|-1-1-1-1--3-3-3-3--5--3--1--3------------------|
D|-x-x-x-x--3-3-3-3--5--3--1--3------------------|

Verso:
E|-----------------------------------------------|
B|-----------------------------------------------|
G|-3-3-3-3---------------------------------------|
D|-3-3-3-3--3-3-3-3--5-5-5--3-3-3--1-1-1--3-3-3--|
A|-1-1-1-1--3-3-3-3--5-5-5--3-3-3--1-1-1--3-3-3--|
D|-x-x-x-x--3-3-3-3--5-5-5--3-3-3--1-1-1--3-3-3--|

E|-----------------------------------------------|
B|-m---------------------------------------------|
G|-3--3--m-m-----m-m----m-m-m-m-m-------------1-3|
D|-3--3--3-3-3---1-1-1--3-3-3-3-3---------1-3----|
A|-1--1--3-3-3---1-1-1--3-3-3-3-3-----1-3--------|
D|-x--x--3-3-3---1-1-1--3-3-3-3-3--1-3-----------|

Refrão 3x:
E|-----------------------------------------------|
B|-----------------------------------------------|
G|-3-3-3-3---------------------------------------|
D|-3-3-3-3--3-3-3-3--1-1-1--3-3-3----------------|
A|-1-1-1-1--3-3-3-3--1-1-1--3-3-3----------------|
D|-x-x-x-x--3-3-3-3--1-1-1--3-3-3----------------|

Final:
E|-----------------------------------------------|
B|-m-m-m-m-------------------------m-------------|
G|-3-3-3-3--m-m-m-m--m-m-m--m-m-m--3-3-----------|
D|-3-3-3-3--3-3-3-3--1-1-1--3-3-3--3-3-----------|
A|-1-1-1-1--3-3-3-3--1-1-1--3-3-3--1-1-----------|
D|-x-x-x-x--3-3-3-3--1-1-1--3-3-3--x-x-----------|
Composição de Yellowcard
Colaboración y revision:
  • Eriomar Silva
15 reproducciones
    • ½ Tono
    • A
    • Bb
    • B
    • C
    • Db
    • D
    • Eb
    • E
    • F
    • F#
    • G
    • Ab
  • Adicionar à lista

    0 comentarios

    Ver todos os comentários
    00:00 / 00:00
    outros vídeos desta música
    repetir qualidade Automático
    Outros vídeos desta música
    00:00 / 00:00
    Automático
    OK