Cifra Club

Aprenda

Rough Landing Holly

Yellowcard

Tab de bajo: Principal
Album: Lights and aounds
Bassist: Pete Mowsley
Tabbed by: Pete Boyle
Tuning:Standard

Intro:
g------------------------------------------------------------------------|
d------------------------------------------------------------------------|
a-----------------------------------2/4444444---------2/44444444---------|
E--000000000000-0000000000000----------------44440000-----------44445555-|x2

Verse:
g--------------------------------------------------------------------|
d--------------------------------------------------------------------|
A--------------------------------------------------------------------|
E-00-000-000-000-000-000-000-00777-99-999-999-99777-99-999-999-99777-|

g------------------------------------------------------------------|
d------------------------------------------------------------------|
A------------------------------------------------------------------|
E-00-000-000-000-000-000-000-00777-9p7-9p7-9p7-9p7-9p7-9p7-9p7-9p7-|

g---------------------------------|
d---------------------------------|
a---------------------------------|
E-9p7-9p7-9p7-9p7-9p7-9p7-9p7-9p7-|


Pre Chorus

g-----------------|
d-----------------|
a-0~--------0~----|
E-----------------|

Chorus
g----------------------------------------------------------------------------------|
d----------------------------------------------------------------------------------|
a----------------------------------------------------------------------------------|
E-0000000000000777777777-9999999999999999--0000000000000777777777-9999999999999999-|

g----------------------------------|
d----------------------------------|
a-000000000000000------------------|
E-----------------2222222222222444-|

Intro:
g------------------------------------------------------------------------|
d------------------------------------------------------------------------|
a-----------------------------------2/4444444---------2/44444444---------|
E--000000000000-0000000000000----------------44440000-----------44445555-|

Verse:
g--------------------------------------------------------------------|
d--------------------------------------------------------------------|
A--------------------------------------------------------------------|
E-00-000-000-000-000-000-000-00777-99-999-999-99777-99-999-999-99777-|

g------------------------------------------------------------------|
d------------------------------------------------------------------|
A------------------------------------------------------------------|
E-00-000-000-000-000-000-000-00777-9p7-9p7-9p7-9p7-9p7-9p7-9p7-9p7-|

g---------------------------------|
d---------------------------------|
a---------------------------------|
E-9p7-9p7-9p7-9p7-9p7-9p7-9p7-9p7-|

Pre Chorus

g-----------------|
d-----------------|
a-0~--------0~----|
E-----------------|

Chorus
g----------------------------------------------------------------------------------|
d----------------------------------------------------------------------------------|
a----------------------------------------------------------------------------------|
E-0000000000000777777777-9999999999999999--0000000000000777777777-9999999999999999-|

g----------------------------------|
d----------------------------------|
a-000000000000000------------------|
E-----------------2222222222222444-|

Bridge
no bass until 2:06

Im not too sure about this part but give it ago.
g-------------------------------|
d-------------------------------|
a-------------------------------|
E-00---00----00---00----00------|

g-------------------------------|
d-------------------------------|
a-------------------------------|
E-00---00----00---00----00------|

g-------------------------------|
d-------------------------------|
a-00---00---00--00----00--------|
E-------------------------------|

g----------------------------|
d----------------------------|
a-00---00---00---00---00-----|
E----------------------------|

g-------------------------------|
d-------------------------------|
a-------------------------------|
E-00---00----00---00----00------|

g-------------------------------|
d-------------------------------|
a-------------------------------|
E-00---00----00---00----00------|

g-------------------------------|
d-------------------------------|
a-00---00---00---00----00-------|
E-------------------------------|

g----------------------------|
d----------------------------|
a-00---00--00---00---00------|
E----------------------------|

PAUSE
g-----
d-----
a-----
E--0~-

Last Chorus
g----------------------------------|
d----------------------------------|
a-00000000000000-------------------|
E-----------------2222222222222444-|

g----------------------------------------------------------------------|
d----------------------------------------------------------------------|
a----------------------------------------------------------------------|
E-0000000000000777-9999999999999999--0000000000000777-9999999999999999-|

g----------------------------------|
d----------------------------------|
a-00000000000000-------------------|
E-----------------2222222222222444-|


Intro:
g------------------------------------------------------------------------|
d------------------------------------------------------------------------|
a-----------------------------------2/4444444---------2/44444444---------|
E--000000000000-0000000000000----------------44440000-----------44445555-|x2

End on
g-----
d-----
a-----
E--0~-

I think its all there and all correct apart from the bridge please email me
on * if you have any suggestions thanks.
Composição de Longineu Parsons III / Peter Mosely / Ryan Key / Sean Mackin
35 reproducciones

0 comentarios

Ver todos os comentários

¿Conseguiste tocar?

0 Tocaram 0 Ainda não

Grave um vídeo tocando Rough Landing Holly e nos envie!

00:00 / 00:00
outros vídeos desta música
repetir qualidade Automático
Outros vídeos desta música
00:00 / 00:00
Automático
OK