Cifra Club

Aprenda

Telescope

Yellowcard

Tablatura: Principal (guitarra)
tono: G
Afinação: Drop D (D A D G B E)


Intro
Guitar 1 (Left):
E|---------------------------------------|
B|---------------------------------------|
G|--------0-----------0-------0-------0--|
D|------5----------12-------5-------4----|
A|----2---------10--------2-------0------|
D|--2-------/10---------0-------0--------|


Guitar 2 (Right):
E|--------7~-------7----------5~----5----|
B|------8-------------8-----8---------8--|
G|--0-0----------0------0-0-------0------|
D|---------------------------------------|
A|---------------------------------------|
D|---------------------------------------|



Verse
Guitar 1:
E|---------------------------------------|
B|---------------------------------------|
G|--------0-----------0-------0-------0--|
D|------5----------12-------5-------4----| x7
A|----2---------10--------2-------0------|
D|--2-------/10---------0-------0--------|

E|---------------------------------------|
B|---------------------------------------|
G|--------0-----------0-------0----------|
D|------5----------12-------5------------|
A|----2---------10--------2--------------|
D|--2-------/10---------0----------------|


Guitar 2:
E|--------7~-------7----------5~----5----|
B|------8-------------8-----8---------8--|
G|--0-0----------0------0-0-------0------|
D|---------------------------------------| x7
A|---------------------------------------|
D|---------------------------------------|

E|--------7~-------7----------5~---------|
B|------8-------------8-----8------------|
G|--0-0----------0------0-0--------------|
D|---------------------------------------|
A|---------------------------------------|
D|---------------------------------------|




Chorus
Guitar 1/2:
E|---------------------------------------|
B|---------------------------------------|
G|--77777777-----------------------------|
D|--55555555-00000000-22222222-55555555--| x2
A|--33333333-00000000-22222222-55555555--|
D|-----------00000000-22222222-55555555--|

E|------------------|
B|------------------|
G|--77777777--------|
D|--55555555-00000--|
A|--33333333-00000--|
D|-----------00000--|



Verse
Guitar 1:
E|---------------------------------------|
B|---------------------------------------|
G|--------0-----------0-------0-------0--|
D|------5----------12-------5-------4----| x8
A|----2---------10--------2-------0------|
D|--2-------/10---------0-------0--------|


Guitar 2:
E|--------7~-------7----------5~----5----|
B|------8-------------8-----8---------8--|
G|--0-0----------0------0-0-------0------|
D|---------------------------------------| x8
A|---------------------------------------|
D|---------------------------------------|


Guitar 3 (Listen for when to enter):
E|---------------------------|
B|---------------------------|
G|---------------------------|
D|--2-2-----------------0-0--|
A|--2-2-----------------0-0--|
D|--2-2-----------------0-0--|

E|-----------------------------------------|
B|-----------------------------------------|
G|-----------------------------------------|
D|--2-2-----------------0-0-0-0-0-0-0-0-0--|
A|--2-2-----------------0-0-0-0-0-0-0-0-0--|
D|--2-2-----------------0-0-0-0-0-0-0-0-0--|



Chorus
Guitar 1/2:
E|---------------------------------------|
B|---------------------------------------|
G|--77777777-----------------------------|
D|--55555555-00000000-22222222-55555555--| x2
A|--33333333-00000000-22222222-55555555--|
D|-----------00000000-22222222-55555555--|

E|----------------------------------------|
B|----------------------------------------|
G|--77777777------------------------------|
D|--55555555-555555-00-22222222-00000000--| x2
A|--33333333-555555-00-22222222-00000000--|
D|-----------555555-00-22222222-00000000--|



Bridge
Guitar 1/2:
E|-------------------------------------------------|
B|-------------------------------------------------|
G|-------------------------777777777777------------|
D|--2-2----------xx-7-7-7--555555555555--xx-0-0-0--| x2
A|--2-2----------xx-5-5-5--333333333333--xx-0-0-0--|
D|--2-2----------xx-4-4-4----------------xx-0-0-0--|

E|-------------------------------------------------|
B|-------------------------------------------------|
G|-------------------------777777777777------------|
D|--222222222222-xx-0-0-0--555555555555--xx-0-0-0--|
A|--222222222222-xx-0-0-0--333333333333--xx-0-0-0--|
D|--222222222222-xx-0-0-0----------------xx-0-0-0--|

E|--------------------------------------------------|
B|--------------------------------------------------|
G|-------------------------777777777777-------------|
D|--222222222222-xx-0-0-0--555555555555--xx-0-xxxx--|
A|--222222222222-xx-0-0-0--333333333333--xx-0-xxxx--|
D|--222222222222-xx-0-0-0----------------xx-0-xxxx--|



Interlude
Guitar 1:
E|-------------------------------------------------------------------------|
B|-------------------------------------------------------------------------|
G|-----------0----------0-------0-------0-------0-------0-------0-------0--|
D|--------12---------12-------4-------4-------5-------5-------7-------7----|
A|-----10---------10--------0-------0-------2-------2-------5-------5------|
D|--10---------10---------0-------0-------2-------2-------5-------5--------|

E|----------------------------------|
B|----------------------------------|
G|-----------0----------0-------0~--|
D|--------12---------12-------4-----|
A|-----10---------10--------0-------|
D|--10---------10---------0---------|


Guitar 2:
E|--------7~-------7----------5~----5----|
B|------8-------------8-----8---------8--|
G|--0-0----------0------0-0-------0------|
D|---------------------------------------| x2
A|---------------------------------------|
D|---------------------------------------|

E|--------7~-------7----------5~--|
B|------8-------------8-----8-----|
G|--0-0----------0------0-0-------|
D|--------------------------------|
A|--------------------------------|
D|--------------------------------|



Chorus
Guitar 1/2:
E|---------------------------------------|
B|---------------------------------------|
G|--77777777-----------------------------|
D|--55555555-00000000-22222222-55555555--| x2
A|--33333333-00000000-22222222-55555555--|
D|-----------00000000-22222222-55555555--|

E|----------------------------------------|
B|----------------------------------------|
G|--77777777------------------------------|
D|--55555555-555555-00-22222222-00000000--| x2
A|--33333333-555555-00-22222222-00000000--|
D|-----------555555-00-22222222-00000000--|

E|---------------------------------------|
B|---------------------------------------|
G|-----------------------------77777777--|
D|--55555555-00000000-22222222-55555555--| x2
A|--55555555-00000000-22222222-33333333--|
D|--55555555-00000000-22222222-----------|



Outro
Guitar 1:
E|---------------------------------------|
B|---------------------------------------|
G|--------0-----------0-------0-------0--|
D|------5----------12-------5-------4----|
A|----2---------10--------2-------0------|
D|--2-------/10---------0-------0--------|

E|--------------------------|
B|--------------------------|
G|--------0-----------0-----|
D|------5----------12-------|
A|----2---------10----------|
D|--2-------/10---------0~--|


Guitar 2:
E|--------7~-------7----------5~----5----|
B|------8-------------8-----8---------8--|
G|--0-0----------0------0-0-------0------|
D|---------------------------------------|
A|---------------------------------------|
D|---------------------------------------|

E|--------7~-------7--------|
B|------8-------------8-----|
G|--0-0----------0------0~--|
D|--------------------------|
A|--------------------------|
D|--------------------------|
Composição de Ryan Key / Yellowcard
Colaboración y revision:
  • Junior ㅤㅤ
11 reproducciones
    • ½ Tono
    • A
    • Bb
    • B
    • C
    • Db
    • D
    • Eb
    • E
    • F
    • F#
    • G
    • Ab
  • Adicionar à lista

    0 comentarios

    Ver todos os comentários

    ¿Conseguiste tocar?

    0 Tocaram 0 Ainda não

    Grave um vídeo tocando Telescope e nos envie!

    00:00 / 00:00
    outros vídeos desta música
    repetir qualidade Automático
    Outros vídeos desta música
    00:00 / 00:00
    Automático
    OK