Cifra Club

Aprenda

Ten

Yellowcard

Tablatura: Principal (guitarra)
tono: D
INTRO


E|----3-3-3-3---3-3-3-3----3---3---3---3---3---3---3---3---3---3---3---3---3---3---3---3--|
B|----3-3-3-3---3-3-3-3----3---3---3---3---3---3---3---3---3---3---3---3---3---3---3---3--|
G|----0-0-0-0---0-0-0-0----0---0---0---0---0---0---0---0---0---0---0---0---0---0---0---0--|
D|----------------------------------------------------------------------------------------|
A|--3---------3----------3-----------2-------------------3-----------2--------------------|
E|---------------------------2---3-------0---0---0---0-------2---3-------0---0---0---0----|


VERSE 1


E|----3---3---3---3---3---3---3---3---3---3---3---3---3---3---3---3--|
B|----3---3---3---3---3---3---3---3---3---3---3---3---3---3---3---3--|
G|----0---0---0---0---0---0---0---0---0---0---0---0---0---0---0---0--|  x 2
D|-------------------------------------------------------------------|
A|--3-----------2-------------------3-----------2--------------------|
E|------2---3-------0---0---0---0-------2---3-------0---0---0---0----|

E|----3---3---3---3---3---3---3---3---3-3-3-3--|
B|----3---3---3---3---3---3---3---3---3-3-3-3--|
G|----0---0---0---0---0---0---0---0---0-0-0-0--|
D|--0---0---0---0------------------------------|
A|------------------2---2---2---2---3----------|
E|---------------------------------------------|

E|----3---3---3---3---3---3---3---3---3---3---3---3---3---3---3---3--|
B|----3---3---3---3---3---3---3---3---3---3---3---3---3---3---3---3--|
G|----0---0---0---0---0---0---0---0---0---0---0---0---0---0---0---0--|  x 2
D|-------------------------------------------------------------------|
A|--3-----------2-------------------3-----------2--------------------|
E|------2---3-------0---0---0---0-------2---3-------0---0---0---0----|


PRE-CHORUS


E|----3---3---3---3---3---3---3---3---3-3-3-3---3-3-3-3--|
B|----3---3---3---3---3---3---3---3---3-3-3-3---3-3-3-3--|
G|----0---0---0---0---0---0---0---0---0-0-0-0---0-0-0-0--|
D|--0---0---0---0----------------------------------------|
A|------------------2---2---2---2---3---------3----------|
E|-------------------------------------------------------|


CHORUS


Guitar 1

E|--33-3-333--33-3-333--33-3-333-33-3-333--|
B|--33-3-333--33-3-333--33-3-333-33-3-333--|
G|--00-0-000--00-0-000--00-0-000-00-0-000--|  x 2
D|--22-2-222--00-0-000--xx-x-xxx-xx-x-xxx--|
A|--22-2-222--22-2-222--33-3-333-33-3-333--|
E|--00-0-000--33-3-333--xx-x-xxx-xx-x-xxx--|

Guitar 2

E|-----------------------------------------|
B|-----------------------------------------|
G|-----------------------------------------|  x 2
D|---------------------------------00---2--|
A|---------------------------------xx-0-2--|
E|---------------------------------33-2-0--|

Guitar 1

E|--33-3-333--33-3-333--33-3-333-33-3-333--33-3-333--33-3-333----3-3-3-3----3-3-3-3--|
B|--33-3-333--33-3-333--33-3-333-33-3-333--33-3-333--33-3-333----3-3-3-3----3-3-3-3--|
G|--00-0-000--22-2-222--00-0-000-00-0-000--00-0-000--22-2-222--0-0-0-0-0----0-0-0-0--|
D|--22-2-222--00-0-000--22-2-222-22-2-222--22-2-222--00-0-000--2---------------------|
A|--22-2-222--00-0-000--33-3-333-33-3-333--22-2-222--00-0-000--3----------3----------|
E|--00-0-000--22-2-222--xx-x-xxx-xx-x-xxx--00-0-000--22-2-222------------------------|


VERSE 2


E|----3---3---3---3---3---3---3---3---3---3---3---3---3---3---3---3--|
B|----3---3---3---3---3---3---3---3---3---3---3---3---3---3---3---3--|
G|----0---0---0---0---0---0---0---0---0---0---0---0---0---0---0---0--|
D|-------------------------------------------------------------------|
A|--3-----------2-------------------3-----------2--------------------|
E|------2---3-------0---0---0---0-------2---3-------0---0---0---0----|

E|----3---3---3---3---3---3---3---3---3---3---3---3---3---3---3---3--|
B|----3---3---3---3---3---3---3---3---3---3---3---3---3---3---3---3--|
G|----0---0---0---0---0---0---0---0---0---0---0---0---0---0---0---0--|
D|----------------------------------0---0---0---0--------------------|
A|--3-----------2-----------------------------------2---2---2---2----|
E|------2---3-------0---0---0---0------------------------------------|

E|----3---3---3---3---3---3---3---3---3---3---3---3---3---3---3---3--|
B|----3---3---3---3---3---3---3---3---3---3---3---3---3---3---3---3--|
G|----0---0---0---0---0---0---0---0---0---0---0---0---0---0---0---0--|  x 2
D|-------------------------------------------------------------------|
A|--3-----------2-------------------3-----------2--------------------|
E|------2---3-------0---0---0---0-------2---3-------0---0---0---0----|


PRE-CHORUS


E|----3---3---3---3---3---3---3---3---3-3-3-3---3-3-3-3--|
B|----3---3---3---3---3---3---3---3---3-3-3-3---3-3-3-3--|
G|----0---0---0---0---0---0---0---0---0-0-0-0---0-0-0-0--|
D|--0---0---0---0----------------------------------------|
A|------------------2---2---2---2---3---------3----------|
E|-------------------------------------------------------|


CHORUS


Guitar 1

E|--33-3-333--33-3-333--33-3-333-33-3-333--|
B|--33-3-333--33-3-333--33-3-333-33-3-333--|
G|--00-0-000--00-0-000--00-0-000-00-0-000--|  x 4
D|--22-2-222--00-0-000--xx-x-xxx-xx-x-xxx--|
A|--22-2-222--22-2-222--33-3-333-33-3-333--|
E|--00-0-000--33-3-333--xx-x-xxx-xx-x-xxx--|

Guitar 2

E|-----------------------------------------|
B|-----------------------------------------|
G|-----------------------------------------|  x 4
D|---------------------------------00---2--|
A|---------------------------------xx-0-2--|
E|---------------------------------33-2-0--|

Guitar 1

E|--33-3-333--33-3-333--33-3-333-33-3-333--33-3-333--33-3-333--|
B|--33-3-333--33-3-333--33-3-333-33-3-333--33-3-333--33-3-333--|
G|--00-0-000--22-2-222--00-0-000-00-0-000--00-0-000--22-2-222--|
D|--22-2-222--00-0-000--22-2-222-22-2-222--22-2-222--00-0-000--|
A|--22-2-222--00-0-000--33-3-333-33-3-333--22-2-222--00-0-000--|
E|--00-0-000--22-2-222--xx-x-xxx-xx-x-xxx--00-0-000--22-2-222--|


BRIDGE


E|--3333--3333--33-3-333-33-3-333--|
B|--3333--3333--33-3-333-33-3-333--|
G|--0000--2222--00-0-000-00-0-000--|
D|--2222--0000--22-2-222-22-2-222--|
A|--3333--0000--22-2-222-22-2-222--|
E|--xxxx--2222--00-0-000-00-0-000--|

E|--3333--3333--33-3-333-33-3-333-33-3-333-33-3-333-33-3-333-33-3-333-33-3-333-33-3-333--|
B|--3333--3333--33-3-333-33-3-333-33-3-333-33-3-333-33-3-333-33-3-333-33-3-333-33-3-333--|
G|--0000--2222--00-0-000-00-0-000-00-0-000-22-2-222-00-0-000-00-0-000-00-0-000-22-2-222--|
D|--2222--0000--22-2-222-22-2-222-22-2-222-00-0-000-22-2-222-22-2-222-22-2-222-00-0-000--|
A|--3333--0000--22-2-222-22-2-222-33-3-333-00-0-000-22-2-222-22-2-222-33-3-333-00-0-000--|
E|--xxxx--2222--00-0-000-00-0-000-xx-x-xxx-22-2-222-00-0-000-00-0-000-xx-x-xxx-22-2-222--|

E|--33-3-333-33-3-333--|
B|--33-3-333-33-3-333--|
G|--00-0-000-22-2-222--|
D|--22-2-222-00-0-000--|
A|--22-2-222-----------|
E|--00-0-000-----------|


INTRO (Or whatever you like to call it, same thing as the intro)


E|----3---3---3---3---3---3---3---3---3---3---3---3---3---3---3---3--|
B|----3---3---3---3---3---3---3---3---3---3---3---3---3---3---3---3--|
G|----0---0---0---0---0---0---0---0---0---0---0---0---0---0---0---0--|
D|-------------------------------------------------------------------|
A|--3-----------2-------------------3-----------2--------------------|
E|------2---3-------0---0---0---0-------2---3-------0---0---0---0----|


PRE-CHORUS


E|----3---3---3---3---3---3---3---3-3--|
B|----3---3---3---3---3---3---3---3-3--|
G|----0---0---0---0---0---0---0---0-0--|
D|--0---0---0---0-------------------2--|
A|------------------2---2---2---2---3--|
E|-------------------------------------|


CHORUS


Guitar 1

E|--33-3-333--33-3-333--33-3-333-33-3-333--|
B|--33-3-333--33-3-333--33-3-333-33-3-333--|
G|--00-0-000--00-0-000--00-0-000-00-0-000--|  x 6
D|--22-2-222--00-0-000--xx-x-xxx-xx-x-xxx--|
A|--22-2-222--22-2-222--33-3-333-33-3-333--|
E|--00-0-000--33-3-333--xx-x-xxx-xx-x-xxx--|

Guitar 2

E|-----------------------------------------|
B|-----------------------------------------|
G|-----------------------------------------|  x 6
D|---------------------------------00---2--|
A|---------------------------------xx-0-2--|
E|---------------------------------33-2-0--|

Guitar 1

E|--33-3-333--33-3-333--33-3-333-33-3-333--33-3-333--33-3-333----3-3-3-3----3-3-3-3--|
B|--33-3-333--33-3-333--33-3-333-33-3-333--33-3-333--33-3-333----3-3-3-3----3-3-3-3--|
G|--00-0-000--22-2-222--00-0-000-00-0-000--00-0-000--22-2-222--0-0-0-0-0----0-0-0-0--|
D|--22-2-222--00-0-000--22-2-222-22-2-222--22-2-222--00-0-000--2---------------------|
A|--22-2-222--00-0-000--33-3-333-33-3-333--22-2-222--00-0-000--3----------3----------|
E|--00-0-000--22-2-222--xx-x-xxx-xx-x-xxx--00-0-000--22-2-222------------------------|


OUTRO


E|----3---3---3---3---3---3---3---3---3---3---3---3-3--|
B|----3---3---3---3---3---3---3---3---3---3---3---3-3--|
G|----0---0---0---0---0---0---0---0---0---0---0---0-0--|
D|--------------------------------------------------2--|
A|--3-----------2-------------------3-----------2---2--|
E|------2---3-------0---0---0---0-------2---3-------0--|
Composição de Ryan Key / Yellowcard
Colaboración y revision:
  • Junior ㅤㅤ
16 reproducciones
    • ½ Tono
    • A
    • Bb
    • B
    • C
    • Db
    • D
    • Eb
    • E
    • F
    • F#
    • G
    • Ab
  • Adicionar à lista

    0 comentarios

    Ver todos os comentários
    00:00 / 00:00
    outros vídeos desta música
    repetir qualidade Automático
    Outros vídeos desta música
    00:00 / 00:00
    Automático
    OK