Cifra Club

Aprenda

Twenty Three

Yellowcard

Tablatura: Principal (guitarra)
tono: C
Intro - Lead Guitar

E|--------9---------------------------------------------------------------------
B|------7---7-4-----------------------------------------------------------------
G|--4-6---------4-6-8-8-9r8-8-6-4-6-8-9r8-8-6-4-6-4-3---------------------------
D|------------------------------------------------------------------------------
A|------------------------------------------------------------------------------
E|------------------------------------------------------------------------------

Intro - Rhythm Guitar

E|------------------------------------------------------------------------------
B|------------------------------------------------------------------------------
G|-44444-------66666--------------99999--1111111111-1111111111------------------
D|-44444-99999-66666-666666-77777-99999--1111111111-1111111111------------------
A|-22222-99999-44444-666666-77777-77777---9-9-9-9-9--9-9-9-9-9------------------
E|-------77777-------444444-55555-----------------------------------------------


Verse - Both Guitars

E|------------------------------------------------------------------------------
B|------------------------------------------------------------------------------
G|---------------44-444------------------------444-444--------------------------
D|-22-222-22-222-44-444-44-444-222-222-222-222-444-444-444-444------------------
A|-22-222-22-222-22-222-44-444-222-222-222-222-222-222-444-444------------------
E|-00-000-00-000--------22-222-000-000-000-000---------222-222------------------
   ^^ ^^^ ^^ ^^^ ^^ ^^^ ^^ ^^^ ^^  ^^  ^^  ^^  ^^  ^^  ^^  ^^

Bridge - Lead Guitar

E|------------------------------------------------------------------------------
B|------------------------------------------------------------------------------
G|-8/9-99999-9/11-1111111111----------------------------------------------------
D|-*-*-*****-*--*-1111111111----------------------------------------------------
A|-6/7-77777-7/-9--9-9-9-9-9----------------------------------------------------
E|------------------------------------------------------------------------------
       ^^^^^       ^ ^ ^ ^ ^

Bridge - Rhythm Guitar

E|------------------------------------------------------------------------------
B|------------------------------------------------------------------------------
G|---------------------------------111111-1111111111----------------------------
D|-222-22222--444-44444--222-22222-111111-1111111111----------------------------
A|-222-22222--444-44444--222-22222--9-9-9--9-9-9-9-9----------------------------
E|-000-00000--222-22222--000-00000----------------------------------------------
       ^^^^^      ^^^^^      ^^^^^         ^ ^ ^ ^ ^

Chorus - Both Guitars

E|------------------------------------------------------------------------------
B|------------------------------------------------------------------------------
G|-44444-------44444-----------------------------99999-1111111111---------------
D|-44444-22222-44444-44444-1111111111-1313131313-99999-1111111111---------------
A|-22222-22222-22222-44444-1111111111-1313131313-77777--9-9-9-9-9---------------
E|-------00000-------22222--9-9-9-9-9-1111111111--------------------------------

2nd Verse - Both Guitars

E|------------------------------------------------------------------------------
B|------------------------------------------------------------------------------
G|-4>-11\8/9\8\6----------------------------------------------------------------
D|-*---*-*-*-*-*----------------------------------------------------------------
A|-2>--9\6/7\6\4----------------------------------------------------------------
E|------------------------------------------------------------------------------

Interlude - Lead Guitar

E|------------------------------------------------------------------------------
B|------------------------------------------------------------------------------
G|-8\6\4/6----------------------------------------------------------------------
D|-*-*-*-*----------------------------------------------------------------------
A|-6\4\2/4----------------------------------------------------------------------
E|------------------------------------------------------------------------------

Interlude - Rhythm Guitar

E|------------------------------------------------------------------------------
B|------------------------------------------------------------------------------
G|-131313-131313-111111-111111-999-999-888-888----------------------------------
D|-131313-131313-111111-111111-999-999-888-888----------------------------------
A|-111111-111111--9-9-9--9-9-9-777-777-666-666----------------------------------
E|------------------------------------------------------------------------------
    ^ ^    ^ ^    ^ ^    ^ ^   ^^  ^^  ^^  ^^

Outro - Both Guitars

E|------------------------------------------------------------------------------
B|------------------------------------------------------------------------------
G|-44444-3----------------------------------------------------------------------
D|-44444-3----------------------------------------------------------------------
A|-22222-1----------------------------------------------------------------------
E|------------------------------------------------------------------------------

Song Order:
Intro - 2 times
Verse - 2 times
Bridge - 2 times
Chorus - 2 times
Intro - 2 times
Verse 2 - 2 times
Bridge - 2 times
Chorus - 2 times
Interlude:
Lead Guitar - 4 times 
Rhythm Guitar - 2 times
Bridge - 2 times
Chorus - 2 times
Intro - 2 times
Outro

/ = Slide up
\ = Slide down
^ = Palm Mute
b = Bend up
r = bend down
> = Hold
Colaboración y revision:
  • Johnny
30 reproducciones
    • ½ Tono
    • A
    • Bb
    • B
    • C
    • Db
    • D
    • Eb
    • E
    • F
    • F#
    • G
    • Ab
  • Adicionar à lista

    0 comentarios

    Ver todos os comentários

    ¿Conseguiste tocar?

    0 Tocaram 0 Ainda não

    Grave um vídeo tocando Twenty Three e nos envie!

    00:00 / 00:00
    outros vídeos desta música
    repetir qualidade Automático
    Outros vídeos desta música
    00:00 / 00:00
    Automático
    OK