Cifra Club

Aprenda

Two Weeks From Twenty

Yellowcard

Tablatura: Principal (guitarra)
tono: D
INTRO/CHORUS ELECTRIC
E|-------------------------|-----------------|-----------------|
B|-------10----------10----|-----8-------8---|-----------------|
G|-------10----------10----|-----9-------9---|-----7-------7---|
D|-10-10----10-10-10----10-|-9-9---9-9-9---9-|-----8-------8---|
A|--8--8-----8--8--8-----8-|-7-7---7-7-7---7-|-7-7---7-7-7---7-|
E|-------------------------|-----------------|-8-8---8-8-8---8-|

E|-------------------------|-------------------------|--------------------|
B|-------10----------10----|--------9-----------9----|-------9--------9---|
G|-------10----------10----|-------10----------10----|-------9--------9---|
D|-10-10----10-10-10----10-|-10-10----10-10-10----10-|-11-11---11-8-8---8-|
A|--8--8-----8--8--8-----8-|--8--8-----8--8--8-----8-|--9--9----9-9-9---9-|
E|-------------------------|-------------------------|--------------------|

ACOUSTIC JOINS IN

E|-------------------------|-------------------------|-------------------------|
B|-------10----------10----|-------10----------10----|-------10----------10----|
G|-------10----------10----|-------10----------10----|-------10----------10----|
D|-10-10----10-10-10----10-|-10-10----10-10-10----10-|--9--9-----9--9--9-----9-|
A|--8--8-----8--8--8-----8-|--8--8-----8--8--8-----8-|-10-10----10-10-10----10-|
E|-------------------------|-------------------------|-------------------------|

E|-------------------------|
B|-------10----------10----|
G|--------9-----------9----|
D|--9--9-----9--9--9-----9-|
A|-10-10----10-10-10----10-|
E|-------------------------|

VERSE

E|-0-0---0---0-0-0-|-0-0---0---0-0-0-|-2-2---2---2-2-2-|-2-2---2---2-2-2-|
B|-2-2---2---2-2-2-|-5-5---5---5-5-5-|-3-3---3---3-3-3-|-1-1---1---1-1-1-|
G|-2-2---2---2-2-2-|-6-6---6---6-6-6-|-2-2---2---2-2-2-|-2-2---2---2-2-2-|
D|-2-2---2---2-2-2-|-5-5---5---5-5-5-|-0-0---0---0-0-0-|-0-0---0---0-0-0-|
A|-0-0---0---0-0-0-|-0-0---0---0-0-0-|-0-0---0---0-0-0-|-0-0---0---0-0-0-|
E|-----------------|-----------------|-----------------|-----------------|
  Jimmy wasn't really popular, he had a couple of friends back home

E|-1-1---1---1-1-1-|-3-3---3---3-3-3-|-0-0---0---0-0-0-|    |-0-0-0-0-0-0-0-0-|
B|-1-1---1---1-1-1-|-3-3---3---3-3-3-|-1-1---1---1-1-1-|    |-2-2-2-2-2-2-2-2-|
G|-2-2---2---2-2-2-|-4-4---4---4-4-4-|-0-0---0---0-0-0-|    |-2-2-2-2-2-2-2-2-|
D|-3-3---3---3-3-3-|-5-5---5---5-5-5-|-2-2---2---2-2-2-|    |-2-2-2-2-2-2-2-2-|
A|-----------------|-----------------|-3-3---3---3-3-3-| X2 |-0-0-0-0-0-0-0-0-|
E|-----------------|-----------------|-----------------|    |-----------------|
But sooner or later they're all getting out, so he had to join up alone

SOLO

E|-3s5---3h5p3----------------------5--8-8h10p8-------7h8p7---------7-8-10--8-10|
B|-------------5---3h5-3-----------------------10-----------8-10----------------|
G|-----------------------4-2p0--0h2---------------------------------------------|
D|------------------------------------------------------------------------------|
A|------------------------------------------------------------------------------|
E|------------------------------------------------------------------------------|

E|-13-11--11--11-14s15-13---------13---------13------------------------------|
B|------13--13-----------16-13------15--15b----15------------------13-14-15--|
G|------------------------------------15---------14-12---12h13-14------------|
D|---------------------------------------------------------------------------|
A|---------------------------------------------------------------------------|
E|---------------------------------------------------------------------------|

E|------------------------13----17-13-----------|
B|-17--17-16-15------13h15--15-------15---------|
G|--------------14---------------------14-12b14-|
D|----------------------------------------------|
A|----------------------------------------------|
E|----------------------------------------------|

OUTRO
After last verse, play this six times:

E|-------------------------|-------------------------|-------------------------|
B|-------10----------10----|-------10----------10----|-------10----------10----|
G|-------10----------10----|-------10----------10----|-------10----------10----|
D|-10-10----10-10-10----10-|-10-10----10-10-10----10-|--9--9-----9--9--9-----9-|
A|--8--8-----8--8--8-----8-|--8--8-----8--8--8-----8-|-10-10----10-10-10----10-|
E|-------------------------|-------------------------|-------------------------|

E|-------------------------|
B|-------10----------10----|
G|--------9-----------9----|
D|--9--9-----9--9--9-----9-|
A|-10-10----10-10-10----10-|
E|-------------------------|

End with this chord:

E|-------|
B|-------|
G|-10----|
D|-10----|
A|--8----|
E|-------|
Composição de Peter Mosely / Ryan Key
Colaboración y revision:
  • steingt s
59 reproducciones
    • ½ Tono
    • A
    • Bb
    • B
    • C
    • Db
    • D
    • Eb
    • E
    • F
    • F#
    • G
    • Ab
  • Adicionar à lista

    0 comentarios

    Ver todos os comentários

    ¿Conseguiste tocar?

    1 Tocaram 0 Ainda não

    Grave um vídeo tocando Two Weeks From Twenty e nos envie!

    00:00 / 00:00
    outros vídeos desta música
    repetir qualidade Automático
    Outros vídeos desta música
    00:00 / 00:00
    Automático
    OK