Cifra Club

Aprenda

Waiting Game

Yellowcard

Tablatura: Principal (guitarra)
tono: G
Intro: Em  C  D  Am  Em  F  D7

Violin part:
E|-15-14-12---------15-14-15----------15-14-17---------15-14-17--------|
B|---------------------------------------------------------------------|
G|---------------------------------------------------------------------|
D|---------------------------------------------------------------------|
A|---------------------------------------------------------------------|
E|-----------10--7------------8--10---------------10~------------7--5--|

E|-17-19-15---------17-19-17----------15-14-17-----------------|
B|-------------------------------------------------------------|
G|-------------------------------------------------------------|
D|----------------------------------------------10--12--10--9--|
A|-------------------------------------------------------------|
E|-----------10--7------------8--10----------------------------|


Verse 1:
G                                         C
  You and me A little different Though we tried to stay the same
G                                           C
  It never leaves And when it changes it is still a waiting game


Refrain 1:
Em             G
  I wait for a lonely breath
C           D
  I wait to surface from this death
Em             G
  Wait for the light to come
    Am              D7       C
And take away these images I get
     Dsus4  D
In my       head


Chorus 1:
G                          C       Am
  More than ever I need to feel you
G                          C       Am
  More than ever I see the real you


Verse 2:

G                                      C
  You are me A worst disaster would be waking up alone
G                                                C
  Now we're free We're drifting out Like all the ones we didn't know


Refrain 2:
Em             G
  I wait for a silent tear
C            D
  I wait for things to disappear
Em             G
  Wait for the ground to stop
Am          D7            C
moving underneath my only fear
     Dsus4    D
If I lose you I don't know


Chorus 2:
G                         C       Am
 More than ever I need to feel you It's all around
G                         C       Am
 More than ever I see the real you And it's around

Interlude (Bass): G (x4)

Bridge:
G
Everything, everything We will had
Am
Out of sight out of mind Given that
G/B                                C
What I see when I dream Hurts like hell and back

(Repeat Bridge)

Interlude 2: (Repeat Intro)

(Repeat Chorus 2 twice)

Outro: G (x4)
Composição de Longineu Parsons III / Peter Mosely / Ryan Key / Sean Mackin
Colaboración y revision:
  • Renan Cunha
26 reproducciones
    • ½ Tono
    • A
    • Bb
    • B
    • C
    • Db
    • D
    • Eb
    • E
    • F
    • F#
    • G
    • Ab
  • Adicionar à lista

    0 comentarios

    Ver todos os comentários

    ¿Conseguiste tocar?

    0 Tocaram 0 Ainda não

    Grave um vídeo tocando Waiting Game e nos envie!

    00:00 / 00:00
    outros vídeos desta música
    repetir qualidade Automático
    Outros vídeos desta música
    00:00 / 00:00
    Automático
    OK