Cifra Club

Aprenda

Way Away

Yellowcard

Tab de bajo: Principal
intro (depois do riff da guitarra) 

G|---------------------------------|
D|---------------------------------|
A|5555555555555555-----------------| (2x)
E|-----------------6666666666666666|

verso (2x)

G|----------------------------------------------------------------------------------|
D|12121212121212121212121212121212-10101010101010101010101010101010-8888888888888888|
A|----------------------------------------------------------------------------------|
E|----------------------------------------------------------------------------------|

G|----------------|
D|----------------|
A|8888888877777777|
E|----------------|

refrao

G|------------------------------------------------------------------|
D|------------------------------------------------------------------|
A|5555555555555555-8888888888888888---------------------------------|
E|----------------------------------6666666666666666-555555555555555|

G|--------------------------------------------------------------|
D|--------------------------------------------------------------|
A|-------------------5555555555555555---------------------------|
E|333333333333333/10------------------333333333333333/10-6666666|

riff intro

G|---------------------------------|
D|---------------------------------|
A|5555555555555555-----------------| (2x)
E|-----------------6666666666666666|

verso (2x)

G|----------------------------------------------------------------------------------|
D|12121212121212121212121212121212-10101010101010101010101010101010-8888888888888888|
A|----------------------------------------------------------------------------------|
E|----------------------------------------------------------------------------------|

G|----------------|
D|----------------|
A|8888888877777777|
E|----------------|

passagem

G|--------------------------------|
D|88888888888888888888888888888888|
A|--------------------------------|
E|--------------------------------|

refrao

G|------------------------------------------------------------------|
D|------------------------------------------------------------------|
A|5555555555555555-8888888888888888---------------------------------|
E|----------------------------------6666666666666666-555555555555555|

G|--------------------------------------------------------------|
D|--------------------------------------------------------------|
A|-------------------55555555-----------------------------------|
E|333333333333333/10---------55555555-333333333333333/10-6666666|

ponte

G|---------------------------------------------------------------------------------------|
D|---------------------------------------------------------------------------------------|
A|5-----------5----5/8--------5----5/8--------5----5/8--------5--35-5/8--------5----5/8--|
E|-----6----8----------6----8----------6----8----------6----8-----------6----8----------6|

G|---------------------------------------------------------------------------|
D|---------------------------------------------------------------------------|
A|555555555555555-5/8-------------------555555555555555-5/8------------------|
E|--------------------666666666666666-8---------------------666666666666666-8|

G|-------------------------------------------------------------------------|
D|-------------------------------------------------------------------------|
A|555555555555555-5/8-------------------555555555555555-5/8----------------|
E|--------------------666666666666666-8---------------------666666666666666|

G|-------------------|
D|-------------------|
A|----------------55-|
E|6666666666666666---|

refrao

G|-------------------------------------------------|
D|-------------------------------------------------|
A|8888888888888888---------------------------------|
E|-----------------6666666666666666-555555555555555|

G|--------------------------------------------------------------|
D|--------------------------------------------------------------|
A|-------------------55555555-----------------------------------|
E|333333333333333/10---------55555555-333333333333333/10-6666666|
Composição de Peter Mosely / Yellowcard
Colaboración y revision:
  • Marcus Pereira
20 reproducciones

0 comentarios

Ver todos os comentários

¿Conseguiste tocar?

1 Tocaram 0 Ainda não

Grave um vídeo tocando Way Away e nos envie!

00:00 / 00:00
outros vídeos desta música
repetir qualidade Automático
Outros vídeos desta música
00:00 / 00:00
Automático
OK