Cifra Club

El fuerte

Yerba Brava

Cifrado: Principal (guitarra y guitarra eléctrica)
tono: Gm

Intro:
E|----------------------------------|-----------------------------|
B|----------3-1---1---------3-1---1-|----------3-1---1------------|
G|--0-0-0-0-----3---0-0-0-0-----3---|--0-0-0-0-----3---0----------|
D|----------------------------------|-----------------------3--3--|
A|----------------------------------|-----------------------------|
E|----------------------------------|-----------------------------|

E|----------------------------------|-----------------------------|
B|----------3-1---1---------3-1---1-|----------3-1---1------------|
G|--0-0-0-0-----3---0-0-0-0-----3---|--0-0-0-0-----3---0----------|
D|----------------------------------|-----------------------3--3--|
A|----------------------------------|-----------------------------|
E|----------------------------------|-----------------------------|

E|--------------------------| |
B|-------3--3-3-3-----------| |
G|--0--------------------0--| |
D|-----------------3--3-----| |
A|--------------------------| |
E|--------------------------| |

Oviamente la intro es con teclados asi que las vas a tener que
arreglar para que suene

Gm                Bb
te quieren correr nos quieren barrer
   F                    Gm
me tiran el rancho y el tuyo tambien
Gm                       Bb
dicen que el barrio esta lleno de hampones
    F                     Gm
que solo es un fuerte de droga y ladrones


Gm                Gm             F
y en solo una hora se lleno de botones
  Cm                             Gm
para tirarlo abajo y levantar mansiones
Compositor não encontrado.
    • ½ Tono
    • Am
    • Bbm
    • Bm
    • Cm
    • C#m
    • Dm
    • Ebm
    • Em
    • Fm
    • F#m
    • Gm
    • G#m
  • Agregar a la lista

    0 comentarios

    Ver todos los comentarios

    ¿Lograste tocar?

    0 Tocaron 0 Aún no

    ¡Graba un video tocando El fuerte y envíanoslo!

    00:00 / 00:00
    Outros vídeos desta música
    Repetir Calidad Automático
    Outros vídeos desta música
    00:00 / 00:00
    Automático
    OK