Cifra Club

I´ve Seen All Good People

Yes

Cifrado: Principal (guitarra y guitarra eléctrica)
Selo Cifra Club: esta cifra foi revisada para atender aos critérios oficiais da nossa Equipe de Qualidade.
tono: E (forma dos acordes no tom de D) Capotraste na 2ª casa
Acoustic Guitar
CAPO ON 2 (The 2nd fret is still referred to as 2nd fret, some people
call it 0 with a capo there, but I don't, just to be clear.)
Standard Tuning

e|-|-7-7h9p7-7-9p7-7-12-11-9-------7-7h9p7-7-9p7-------------7-7h9p7-9p7-|
B|-|-------------------------9-7-----------------7---9-9-7---------------|
G|-|-9-9-----9-9---9-13-11-9-----9-9-9-----9-9-9---9-------9-9-9-----9-9-|
D|-|-------------------------2-2-6---------------2-6-2-2-2-6-------------|
A|-|---------------------------------------------------------------------|
E|-|---------------------------------------------------------------------|

e|-|-7-12-11-14-12-16-14----16-14----16-14----17-14----16-14----16-|
B|-|---------------------12-------12-------12-------12-------12----|
G|-|-9-13-11-14-13-16----------------------------------------------|
D|-|---------------------------------------------------------------|
A|-|---------------------------------------------------------------|
E|-|---------------------------------------------------------------|

The rest of the song goes like this over and over until it goes
into "Your Move" and you can strum this however you want.

e|-|--4--4--4--4--5--5--5--5--7--7--7--7--5--5--5--5-|
B|-|--5--5--5--5--5--5--5--5--5--5--5--5--5--5--5--5-|
G|-|--4--4--4--4--2--2--2--2--4--4--4--4--2--2--2--2-|
D|-|--2--2--2--2--2--2--2--2--2--2--2--2--2--2--2--2-|
A|-|--------------4--4--4--4--------------4--4--4--4-|
E|-|--------------5--5--5--5--------------5--5--5--5-|

I could never be able to tab "Your Move"(I only said I would tab
"I've seen all good people") but I know the Rhythm Guitar plays
this first and it plays the same pattern throughout, just listne to
the song for correct timing:

e|-|-----------------------------------------------------------------------|
B|-|-----------------------------------------------------------------------|
G|-|-----------------------------------------------------------------------|
D|-|-----------------------------------------------------------------------|
A-|-7-7-9-7-7-9-7-7-9-7-7-9-7-7-9-7-7-9-7-7-9-9-9-11-9-9-11-9-9-11-9-9-11-|
e|-|-5-5-5-5-5-5-5-5-5-5-5-5-5-5-5-5-5-5-5-5-5-7-7-7--7-7-7--7-7-7--7-7-7--|
Otros videos de esta canción
    281 exhibiciones
      • ½ Tono
      • A
      • Bb
      • B
      • C
      • Db
      • D
      • Eb
      • E
      • F
      • F#
      • G
      • Ab
    • Agregar a la lista

    Afinação da cifra

    Afinador online

      Ops (: Contenido disponible solo en portugués.
      OK