Cifra Club

Mood for a Day

Yes

Cifrado: Principal (guitarra y guitarra eléctrica)
Selo Cifra Club: esta cifra foi revisada para atender aos critérios oficiais da nossa Equipe de Qualidade.
tono: G
E|---3--3--3--3--2--x--|--3--3--3--3--2--x--|--3--3--3--3--0--0--|
B|---3--3--3--3--2--x--|--3--3--3--3--2--x--|--3--3--3--3--2--2--|
G||*--4--4--4--4--3--x--|--4--4--4--4--3--x--|--4--4--4--4--3--3-|
D||*--5--5--5--5--4--x--|--5--5--5--5--4--x--|--5--5--5--5--4--4-|
A|---5--5--5--5--4--x--|--5--5--5--5--4--x--|--5--5--5--5--4--4--|
E|---3--3--3--3--2--x--|--3--3--3--3--2--x--|--3--3--3--3--0--0--|

--x--0--x--0--0--x---||--x--0--x--0--0-----|------------------3-|
--x--2--x--2--2--x---||--x--2--x--2--2-----|------------2--3----|
--x--3--x--3--3--x--*||--x--3--x--3--3-----|------3--4----------|
--x--4--x--4--4--x--*||--x--4--x--4--4-----|-4/5----------------|
--x--4--x--4--4--x---||--x--4--x--4--4-----|--------------------|
--x--0--x--0--0--x---||--x--0--x--0--0-----|--------------------|

--2-2-2-x-----0-------|-------------0---------|----------------3|
----3-3-x-2h3--2h3p2p0|--3p2-0-2h3----3p2-0---|-2----------2-3--|
----4-4-x-------------|2----------------------|--------3-4------|
----4-4-x-------------|-----------------------|----4/5----------|
----2-2-x-0-----------|---------------2-------|-1---------------|
----------------------|--3-----2--------------|-----------------|

--2-2-2-x-2h3h5p3p2p0|--------------------|-----0------------|
----3-3-x------------|-2h3p2p0-----3p2-0--|-2h3----3p2-0-----|
----4-4-x------------|----------2---------|------------------|
----4-4-x------------|--------------------|------------------|
----2-2-x-0----------|--------------------|--------2---------|
---------------------|-------------3------|-2----------------|

-----------------------|----------------|------------------------|
----------2-3-0-2----0-|----------------|------------------------|
------3-4----------3---|0-3---0---------|------------------------|
--4/5------------------|----4---2-4-0-2-|---0--------------------|
-----------------------|----------------|-4---2-4-0-2---0--------|
-----------------------|----------------|-------------4---2-4-1-2|

------------------------------------------|
------------------------------------------|
------------------------------------------|
------------------------------------------|
---1--------------------------------------|
-3---2h3p2p0h2h3p2p02h3p2p0h2h3p2p0h2-----|

---------------------------|---------------------|-------------------2|
--3-2-0---------3-2-0------|--3-2-0-------0------|-------------------3|
--------2-1-----------2-1--|--------2p0h2---2---2|-2h4p2p0-----------4|
--0---------4-------------4|------------------0--|---------2h4p2p0---4|
---------------------------|---------------------|-----------------2--|
----------------0----------|--3------------------|--------------------|

-----------------------|---------------------------|
--3-1------------------|--3-2-0--------3-2-0-------|
------3-2-0------------|--------2-1----------2-1---|
------------0--0-2-0-2-|--0---------4------------4-|
---------------1-3-1-4-|---------------------------|
--1--------------------|---------------0-----------|

----------------------|-------------------2|------------------|
--3-2-0-------0-------|-------------------3|--3-1-------------|
--------2p0h2----2---2|-2h4p2p0-----------4|------3-2-0-------|
-------------------0--|---------2h4p2p0---4|------------0-----|
----------------------|-----------------2--|------------------|
--3-------------------|--------------------|--1---------------|

--5p3-5p3-------------------------------|
----------6-5-3-------------------------|
----------------5-3-2-0-----------------|
------------------------3-2-0-----------|
------------------------------3-1-0-----|
------------------------------------3-2-|

--2-4-5--4-2-2--------0--|-----------0-----------|--2-4-5-4-7-7-5/12--12--|
----------------3-2h3----|-3-2-0-2-3---3-2-0-2---|------------0-----------|
-------------------------|-----------------------|------------------------|
------2------0-----------|---------------------4-|------2-----------------|
------------------0------|-------------2-----1---|------------------------|
-------------------------|-3-----2---------------|--------------------9---|

--10-9--14--12--10--10-9-7-|-9-7-5-7-5-3--|
---------------------------|--------------|
---------------------------|-------0------|
---------------------------|-7------------|
--------------------11-----|--------------|
--------10-----------------|--------------|

-5-5p4p3p2p0-----------5-5p4p3p2p0-----------|
--------------3---3-----------------3-0h3-0--|
----------------2------0---------------------|    3x
-0-------------------------------------------|
---------------------------------------------|
---------------------------------------------|

---3--3--3--3--2--x--|--3--3--3--3--2--x--|--3--3--3--3--0--0--|
---3--3--3--3--2--x--|--3--3--3--3--2--x--|--3--3--3--3--2--2--|
*--4--4--4--4--3--x--|--4--4--4--4--3--x--|--4--4--4--4--3--3--|
*--5--5--5--5--4--x--|--5--5--5--5--4--x--|--5--5--5--5--4--4--|
---5--5--5--5--4--x--|--5--5--5--5--4--x--|--5--5--5--5--4--4--|
---3--3--3--3--2--x--|--3--3--3--3--2--x--|--3--3--3--3--0--0--|

--x--0--x--0--0--x---||--x--0--x--0--0-----|------------------3-|
--x--2--x--2--2--x---||--x--2--x--2--2-----|------------2--3----|
--x--3--x--3--3--x--*||--x--3--x--3--3-----|------3--4----------|
--x--4--x--4--4--x--*||--x--4--x--4--4-----|-4/5----------------|
--x--4--x--4--4--x---||--x--4--x--4--4-----|--------------------|
--x--0--x--0--0--x---||--x--0--x--0--0-----|--------------------|

--2-2-2-x-----0-------|-------------0---------|----------------3|
----3-3-x-2h3--2h3p2p0|--3p2-0-2h3----3p2-0---|-2----------2-3--|
----4-4-x-------------|2----------------------|--------3-4------|
----4-4-x-------------|-----------------------|----4/5----------|
----2-2-x-0-----------|---------------2-------|-1---------------|
----------------------|--3-----2--------------|-----------------|

--2-2-2-x-2h3h5p3p2p0|--------------------|-----0------------|
----3-3-x------------|-2h3p2p0-----3p2-0--|-2h3----3p2-0-----|
----4-4-x------------|----------2---------|------------------|
----4-4-x------------|--------------------|------------------|
----2-2-x-0----------|--------------------|--------2---------|
---------------------|-------------3------|-2----------------|

-----------------------|----------------|------------------------|
----------2-3-0-2----0-|----------------|------------------------|
------3-4----------3---|0-3---0---------|------------------------|
--4/5------------------|----4---2-4-0-2-|---0--------------------|
-----------------------|----------------|-4---2-4-0-2---0--------|
-----------------------|----------------|-------------4---2-4-1-2|

------------------------------------------|
------------------------------------------|
------------------------------------------|
------------------------------------------|
---1--------------------------------------|
-3---2h3p2p0h2h3p2p02h3p2p0h2h3p2p0h2-----|

---------------------------|---------------------|-------------------2|
--3-2-0---------3-2-0------|--3-2-0-------0------|-------------------3|
--------2-1-----------2-1--|--------2p0h2---2---2|-2h4p2p0-----------4|
--0---------4-------------4|------------------0--|---------2h4p2p0---4|
---------------------------|---------------------|-----------------2--|
----------------0----------|--3------------------|--------------------|

-----------------------|---------------------------|
--3-1------------------|--3-2-0--------3-2-0-------|
------3-2-0------------|--------2-1----------2-1---|
------------0--0-2-0-2-|--0---------4------------4-|
---------------1-3-1-4-|---------------------------|
--1--------------------|---------------0-----------|

----------------------|-------------------2|------------------|
--3-2-0-------0-------|-------------------3|--3-1-------------|
--------2p0h2----2---2|-2h4p2p0-----------4|------3-2-0-------|
-------------------0--|---------2h4p2p0---4|------------0-----|
----------------------|-----------------2--|------------------|
--3-------------------|--------------------|--1---------------|

--5p3-5p3-------------------------------|
----------6-5-3-------------------------|
----------------5-3-2-0-----------------|
------------------------3-2-0-----------|
------------------------------3-1-0-----|
------------------------------------3-2-|

--2-4-5--4-2-2--------0--|-----------0-----------|--2-4-5-4-7-7-5/12--12--|
----------------3-2h3----|-3-2-0-2-3---3-2-0-2---|------------0-----------|
-------------------------|-----------------------|------------------------|
------2------0-----------|---------------------4-|------2-----------------|
------------------0------|-------------2-----1---|------------------------|
-------------------------|-3-----2---------------|--------------------9---|

--10-9--14--12--10--10-9-7-|-9-7-5-7-5-3--|
---------------------------|--------------|
---------------------------|-------0------|
---------------------------|-7------------|
--------------------11-----|--------------|
--------10-----------------|--------------|

-5-5p4p3p2p0-----------5-5p4p3p2p0-----------|
--------------3---3-----------------3-0h3-0--|
----------------2------0---------------------|    3x
-0-------------------------------------------|
---------------------------------------------|
---------------------------------------------|

--5-5p4p3p2-----------------------------------------2h3---|
-------------3p2p1p0--------------------------------3-----|
--0-------------------4p3p2p0-----------------------2-----|
-------------------------------4p3p2p0--------------0-----|
----------------------------------------3p2p1p0-----------|
--------------------------------------------------------2-|

Otros videos de esta canción
    28.395 exhibiciones
      • ½ Tono
      • A
      • Bb
      • B
      • C
      • Db
      • D
      • Eb
      • E
      • F
      • F#
      • G
      • Ab
    • Agregar a la lista

    Afinación de cifrado

    Afinador online

      OK