Cifra Club

Roundabout

Yes

Cifrado: Principal (guitarra y guitarra eléctrica)
Quer fazer aulas de música com a gente? Responda essas perguntas
e nos ajude nesse projeto! →
tono: G
[Intro]

E|---------------12(H)----7--5h7p5-------5--------------|
B|-------------12(H)----------------8-7-----------------|
G|-----------12(H)--------------------------------------|
D|------------------------------------------------------|
A|------------------------------------------------------|
E|--12(H)-----------------------------------------------|

E|---------------12(H)----7--5h7p5----------------------|
B|-------------12(H)----------------8-7-----------------|
G|-----------12(H)-----------------------4/7------------|
D|---------------------------------------------4/7------|
A|----------------------------------------------------3-|
E|--12(H)-----------------------------------------------|

E|---------------12(H)----7--5h7p5-------5--------------|
B|-------------12(H)----------------8-7-----7-----------|
G|-----------12(H)--------------------------------------|
D|------------------------------------------------------|
A|------------------------------------------------------|
E|--12(H)-----------------------------------------------|

E|--2-3-2h3p2-----0--------------------------------------------|
B|-------------3-----3-1-0-3---1---0---------------------------|
G|---------------------------4---2---0--2------2--4--2--4--2---|
D|--0--------------------------------------2---4--5--4--5--4--2|
A|----------------3--------2---0-----------2---4--5--4--5--4--2|
E|---------------------------------3----2--0------------------0|

 ...Spend the day your way
E|-------------------------------------------------------------|
B|-------------------------------------------------------------|
G|-------------------------------------------------------------|
D|2--2--4--5--4--5--4--2--2----2--2-4---5-4-2------------------|
A|2--2--4--5--4--5--4--2--2----2--2-4---5-4-2------------------|
E|0--0--2--3--2--3--2--0--0------------------------------------|

[Ponte]

           Bm              F#m5+/A (Dica:Finja que é um Bm com a pestana até o D)
Call it morning driving through the sound and

E              G
In and out the valley

[Refrão]

         G   C/E F C/E F C/E G
E|-----------------------------|
B|--3-3-5--6--5--6--5--3-3-3-3-|
G|--4-4-5--5--5--5--5--4-4-4-4-|
D|--5-5-5--7--5--7--5--5-5-5-5-| (6x)
A|---------8--7--8--7----------|
E|-----------------------------|

E|--------------------------------------------------------------------------|
B|--------------------------------------------------------------------------|
G|---4h5h7---------4h5h7---------4h5h7----------4h5h7---------4h5h7---------|
D|---------4h5h7---------4h5h7----------4h5h7---------4h5h7---------4h5h7---|
A|---------------3----------------------------------------------------------|
E|-----------------------------7-------------5--------------3-------------2-|
Composición de Jon Anderson / Steve Howe
Colaboración y revisión:
6.801 vistas
    • ½ Tono
    • A
    • Bb
    • B
    • C
    • Db
    • D
    • Eb
    • E
    • F
    • F#
    • G
    • Ab
  • Agregar a la lista

    0 comentarios

    Ver todos los comentarios
    00:00 / 00:00
    Outros vídeos desta música
    Repetir Calidad Automático
    Outros vídeos desta música
    00:00 / 00:00
    Automático
    OK