Cifra Club

Sister Sleeping Soul

Yes

Cifrado: Principal (guitarra y guitarra eléctrica)
Selo Cifra Club: esta cifra foi revisada para atender aos critérios oficiais da nossa Equipe de Qualidade.
tono: C#m
                         E
E|-11h12-11-9-----------11h12-11-9----------11h12-11-9-------------------------|
B|------------9-10-12--------------9-10-9--------------9-10-12--14-10-----12-9-|
G|-----------------------------------------------------------------------------|
D|-----------------------------------------------------------------------------|
A|-----------------------------------------------------------------------------|
E|-----------------------------------------------------------------------------|


[Verse 1]
E
Where have you gone

Your heart full of song

Oh, sister of my soul

Timid and bright

You clung to my side
        C#m               D                 E
Through all those teenage magic tragic nights
    C#m        D                E
The hazy crazy daze of our youth
B                A             E
Thinking we were bullet proof


[Chorus]
                 B
But you went too far
       A           E
It was then that I lost you
B                   A           E      B
You're burning out, my shooting star

Yeah, you went too far
       A           E
It was then that I lost you
C#m
Sister sleeping soul
D
Sister sleeping soul
              C#m
Where are you now
B

[Verse 2]
     E
Far across the wide sea

Sleepwalking some city

By your liquid dream you're carried down stream
          A     C#m    D
Spun way out of all control
                         B
Caught by the undertow

[Verse 3]

                       E                                E                                          A
                    1: In your heart                    was a song                  Where have you gone
                    2: In my heart                      you bеlong                    Too high, so low
E|-11h12-11-9------------------------11h12-11-9--------------------11h12-11-9-------------------------|
B|------------9-10-12---------------------------9-10-9------------------------9-10-12--14-10-----12-9-|
G|----------------------------------------------------------------------------------------------------|
D|----------------------------------------------------------------------------------------------------| X2
A|----------------------------------------------------------------------------------------------------|
E|----------------------------------------------------------------------------------------------------|

Sister sleeping soul


[Chorus]
             B
You went too far
       A           E         B
It was then that I lost you
                    A           E      B
You'rе burning out, my shooting star

Yeah, you went too far
       A           E
It was then that I lost you
C#m
Sister sleeping soul
D
Sister sleeping soul
              C#m
Where are you now
     B
You live it all like you're ten feet tall


[Verse 4]
A                      E
Hey, can you free your mind
 A
Enough to know you matter
   E                                    G
No less than all the stars through time
A                      E
Hey, can you free your mind
 A
Enough to know you matter
   E
No less than all the stars through time
G
Brighter than all stars through time
                                  A    E    Am    G     C     Fm
Sister of my soul never refuse to shine

C C G x2
                      E                   E                                  A
E|-11h12-11-9-----------11h12-11-9----------11h12-11-9-------------------------|
B|------------9-10-12--------------9-10-9--------------9-10-12--14-10--12-9----|
G|-----------------------------------------------------------------------------|
D|-----------------------------------------------------------------------------| X2
A|-----------------------------------------------------------------------------|
E|-----------------------------------------------------------------------------|

[Synth Solo]

B  A E x3

[Chorus]
C#m
Sister sleeping soul
D
Sister sleeping soul
              C#m
Where are you now
A
You live it all like you're ten feet tall

Gonna crash and burn
                   E
When will you ever learn

A E x3 
end on E

***********************************

| h   Hammer-on
| p   Pull-off
| /   Slide up
| \   Slide down
| x   Dead note
| har Harmonics
Otros videos de esta canción
    0 exhibiciones
      • ½ Tono
      • Am
      • Bbm
      • Bm
      • Cm
      • C#m
      • Dm
      • Ebm
      • Em
      • Fm
      • F#m
      • Gm
      • G#m
    • Agregar a la lista

    Afinação da cifra

    Afinador online

      Ops (: Contenido disponible solo en portugués.
      OK