Cifra Club

Survival

Yes

Cifrado: Principal (guitarra y guitarra eléctrica)
Selo Cifra Club: esta cifra foi revisada para atender aos critérios oficiais da nossa Equipe de Qualidade.
tono: D
  riff 1                   Cmaj7
E|-------------------------------------------------------------|
B|----------------------0--0-----------------------------------|
G|----------------------4--4-----------------------------------|
D|------5-----7---------2--2-----------------------------------|
A|---7-----5------3--3--3--3-----------------------------------|
E|-------------------------------------------------------------|

 Guitar w/organ in unison

  riff 2 
E|-------------------------------------|
B|-------------5-----------------------|
G|-------4-4-4---4-4-7-----4-----------|
D|---5-7---------------7-7---5-5-------|
A|-------------------------------------|
E|-------------------------------------|
 last couple times has a harmony of 3rds on the last 3 notes..



 Guitar harmony in 10th's w/volume pedal

  riff 3
E|--7---10---8--5---7--3--5--2------|
B|----------------------------------|
G|----------------------------------|
D|--5---9----7--4---5--2--4--0------|
A|----------------------------------|
E|----------------------------------|
after this goes back riff 2 and fades into..


 chords backing intro acoustic solo
E|--0---///--0--///--------|
B|--7---///--0--///--------|
G|--7---///--6--///--------|
D|--5---///--7--///--------|
A|--7---///--7--///--------|
E|-----------5--///--------|

  solo
E|--12-12---12-12-12---12-12-12----12--12-12------------------------|
B|--------------------------------------------10-10-----------------|
G|--------9----------9----------9---9---9--9--------9--9--9---------|
D|--------------------------------------------7--7-----------7--7---|
A|--------------------------------------------------7--7--7---------|
E|-----------------------------------------------------------5--5---|
  dynamically...

E|--7---------------------------------------------------------|
B|----0-7-10-7----------------------12-12-12------------------|
G|-------------7-7-7----6-6------------------11---------------|
D|--------------------------9-9-7---9--9--9-------------------|
A|-------------------------------------------9----------------|
E|------------------------------------------------------------|
 this i will finish someday... it is difficult hearing 12 string solos without one..
Otros videos de esta canción
    8 exhibiciones
      • ½ Tono
      • A
      • Bb
      • B
      • C
      • Db
      • D
      • Eb
      • E
      • F
      • F#
      • G
      • Ab
    • Agregar a la lista

    Afinação da cifra

    Afinador online

      Ops (: Contenido disponible solo en portugués.
      OK