Cifra Club

Tales From Topographic Oceans

Yes

Cifrado: Principal (guitarra y guitarra eléctrica)
Selo Cifra Club: esta cifra foi revisada para atender aos critérios oficiais da nossa Equipe de Qualidade.
tono: C
E|E|E|----------------------------------------------------------------------------------|||
Index:

1. Intro ("The Revealing Science of God")
2. and
3. Parts after the Intro (: 

4. Guitar part from "The Remembering" (As the silence of season...)

5. a.,b.,c. and d. Acoustic part of "The Ancient"              

E|E|E|----------------------------------------------------------------------------------|||

I.   "p" pull of 
II.  "h" hammer on
III. -*- 
     ---  (repeat)
     -*-


1.Intro 

E|-------------------------------------------------------------------|
B|-------------------------------------------------------------------|
G|-------------------------------------------------------------------|
D|-------------------------------------------------------------------|
A|----9-----9-----9-----9-----9-----9-----...a| nd so on...------------|
E|-7-----7-----7-----7-----7-----7-----7-----------------------------|


2.         
E|----------------------|---------------------|----------------------|
B|----------------------|---------------------|----------------------|
G|--9--8----------------|-7--6----------------|--9--8----------------|
D|--------9-------------|-------7-------------|--------9-------------|
A|----------------6-----|---------------4-----|----------------6-----|
E|--7--7--7-7-9-7---9-7-|-5--5--5-5-7-5---7-5-|--7--7--7-7-9-7---9-7-|


E|----------------------|---------------------|----------------------|
B|----------------------|---------------------|----------------------|
G|--7--6----------------|-9--8----------------|-7--6-----------------|
D|--------7-------------|-------9-------------|-------7--------------|
A|----------------4-----|---------------6-----|---------------4------|
E|--5--5--5-5-7-5---7-5-|-7--7--7-7-9-7---9-7-|-5--5--5-5-7-5---7-5--|

                                             3.
E|----------------------|---------------------|-0--0--2--4----5--7---|
B|----------------------|---------------------|-0--------------------|
G|--9--8----------------|-7--6-----5--4-------|-1--1--2--4---6--8----|
D|--------9-------------|-------7--------5----|-2--------------------|
A|----------------6-----|---------------------|-2--------------------|
E|--7--7--7-7-9-7---9-7-|-5-----5--3-----3----|-0--------------------|


E|--5--4-------------|-0--0--2--4----5--7--5--4-------------|--------|
B|-----5-------------|-0----------------------5-------------|--------|
G|-6---4-------------|-1--1--2--4---6--8--6---4-------------|--------|
D|-----6-------------|-2----------------------6-------------|--------|
A|-----7-------------|-2----------------------7-------------|--------|
E|-------0-0-0--0--0-|-0------------------------0-0-0--0--0-|--------|


E|-0--0--2--4--------5-------7-------9-------11----------------------|
B|-0-----------------------------------------------------------------|
G|-1--1--2--4-------6-------8--------9-------11----------------------|
D|-2-----------------------------------------------------------------|
A|-2-----------------------------------------------------------------|
E|-0----------0-0-0----0-0-0---0-0-0---0-0-0----0--0---0-------------|


E|-12---12--12--12--12-----12-|---12--12--12--12--------------|------|
B|----------------------------|-------------------------------|------|
G|-13--13--h14-p13--11--9--12-|-12--14--12--11--9(s| lide down)-|------
D|----------------------------|-------------------------------|------|
A|----------------------------|-------------------------------|------|
E|----------------------------|----------------------------(3)|------|


4. (repeat this part several times with a short rest a marked note 
(x) in one version; 7/8 !!)

(Vocals: As the silence of season...)

E|----------|----------x0---------------|---------------------|------|
B|----------|-------1-----0-------------|-------1---0---------|------|
*---------|---2-------------0---------|---2---------0------*|------
E|----0--2--| 3--------------------0--2--|3----------------0---|------
*---------|---------------------------|--------------------*|------
E|-(3)---3--|-1---1---1-3---3---3----3--|-1---1---1-3---3---3-|------|


5. This is the complete transcribtion of the acoustic part of "The
 Ancient". Try to realise it with the original song...

5.a. Intro

E|-------0--2-----0--0--0----0--5-p2h5p5-----------------------------|
B|-2--3--------2------2--2---------------5-3-2-0-0-------------------|
G|-----------------------------------------------4-------------------|
D|---------------------------0-------------------2-------------------|
A|-------0--------4----4--4------------------------------------------|
E|-------------------------------------------------------------------|

5.b. (Vocals: Does the leaves of green stay greener...)

E|--------0-----2--0-----------0-------------------------------------|
B|--2--3-----2--------3--2--3-----3--0-------------------------------|
G|---------------------------------------1--2--4---------------------|
D|--------------0----------------------------------------------------|
A|--0--2--4--0-----4--2--0--2--4--2----------------------------------|
E|-----------------------------------4---0--2--4---------------------|


E|--------0-----2--0--------0----0--0--0-----------------------------|
B|--2--3-----2--------3--2-------------------------------------------|
G|-----------------------------7--7--7--7----------------------------|
D|--------------0----------------------------------------------------|
A|--0--2--4--0-----4--2--0--4----------------------------------------|
E|-----------------------------7---7--7--7(s| lide down to 3)----------



5.c. Refrain

Strumming: 

   G             C              G       C
...And I heard a milliom voices singing
G               F
  acting to the story.... 



(Vocals: Does one child know the secret...)

E|--------0-----2--0--------0-------------0-------------------------|
B|--2--3-----2--------3--2-----3-------2-----3-----2----------------|
G|-------------------------------4--1----------4-1------------------|
D|--------------0------------------------------------...a| nd so on...
A|--0--2--4--0-----4--2--0--4--2-------0--4--2-----0----------------|
E|-------------------------------4--0----------4-0------------------|


5.d. "Lalala"-Part: A/E/A/E/A...... (strumming)



E|E|E|----------------------------------------------------------------------------------|||
File created by Torsten Lasse, March 2000 
File name: yes-tales_from_t_o.txt  ((Version 1))
For further information or tips contact: uzsrbw@uni-bonn.de
If you have transcribed other parts please contact me...
Otros videos de esta canción
    1 exhibiciones
      • ½ Tono
      • A
      • Bb
      • B
      • C
      • Db
      • D
      • Eb
      • E
      • F
      • F#
      • G
      • Ab
    • Agregar a la lista

    Afinação da cifra

    Afinador online

      Ops (: Contenido disponible solo en portugués.
      OK