Cifra Club

Arpeggios From Hell

Yngwie Malmsteen

Tablatura: Principal
reproducciones 825
Tono: G
e||----------------------------------------------------------7---7-12-7--12-15-14-12-15-14-12-----|
B||----------------------------------------------------8---8---8----------------------------------|
G||----------------------------------------------9---9---9----------------------------------------|
D||---------------------------------------9----9---9----------------------------------------------|
A||-------------------------7---7-10-7-10---10----------------------------------------------------|
E||-3/17~~-0--0-3-0-3-7-3-7---7-------------------------------------------------------------------|

e||-19-15----------------------------------------------------------------------------------|
B||-------17----17-------------------------------------------------------------------------|
G||----------16----16----16----------------------------------------------------------------|
D||-------------------17----17-14-17-14----14----------------------------------------------|
A||-------------------------------------14----14----14-------------------------------------|
E||----------------------------------------------15----15-12~~~~---------------------------|

e||--------------------------------------------12----12-17^--------------------------------|
B||-----------------------------------13----13----13---------------------------------------|
G||--------------------------14----14----14------------------------------------------------|
D||-----------------14----14----14---------------------------------------------------------|
A||-12--12-15-12-15----15------------------------------------------------------------------|
E||----------------------------------------------------------------------------------------|

e||-18-15----------------------------------------------------------------------------------|
B||-------17----17-------------------------------------------------------------------------|
G||----------18----18-15-18-15----15-------------------------------------------------------|
D||----------------------------17----17-14-17-14----14-------------------------------------|
A||----------------------------------------------16----16-13-16-13-------------------------|
E||----------------------------------------------------------------15~~~~------------------|                                                                                                                                                                                                                                                                         |
e||-17-14----------------------------------------------------------------------------------|
B||-------16----16-------------------------------------------------------------------------|
G||----------17----17-14-17-14----14-------------------------------------------------------|
D||----------------------------16----16-13-16-13----13-------------------------------------|
A||----------------------------------------------15----15-12-15-12-------------------------|
E||----------------------------------------------------------------14~~~-------------------|

e||-15-12----14-11-----15-12----14-11----15-12----14-11----15-12----14^^-------------------|
B||-------12-------12--------12-------12-------12-------12-------12------------------------|
G||----------------------------------------------------------------------------------------|
D||----------------------------------------------------------------------------------------|
A||----------------------------------------------------------------------------------------|
E||----------------------------------------------------------------------------------------|

e||-15-14-12-11----------------------------------------------------------------------------|
B||-------------13-12-10-------------------------------------------------------------------|
G||----------------------12-11-9-8---------------------------------------------------------|
D||--------------------------------10-9-7--------------------------------------------------|
A||---------------------------------------10-9-7-6-----------------------------------------|
E||------------------------------------------------8-7-5-3\2p0-0---------------------------|

*  Em algumas partes da música essas duas partes são tocadas duas vezes seguidas respectivamente.

** Para tocar mais rápido (na velocidade da música) use hammer on e pull off nas notas que são tocadas
na mesma corda.
   Assim|

e||---------------------------------------------------7---7h12p7--12h15-14-12-15-14-12-----|
B||---------------------------------------------8---8---8----------------------------------|
G||---------------------------------------9---9---9----------------------------------------|
D||--------------------------------9----9---9----------------------------------------------|
A||------------------7---7h10p7-10---10----------------------------------------------------|
E||-0--0h3p0-3h7p3-7---7-------------------------------------------------------------------|

e||-19p15----------------------------------------------------------------------------------|
B||-------17----17-------------------------------------------------------------------------|
G||----------16----16----16----------------------------------------------------------------|
D||-------------------17----17-14-17p14----14----------------------------------------------|
A||-------------------------------------14----14----14-------------------------------------|
E||----------------------------------------------15----15-12~~~~---------------------------|

e||--------------------------------------------12----12-17^--------------------------------|
B||-----------------------------------13----13----13---------------------------------------|
G||--------------------------14----14----14------------------------------------------------|
D||-----------------14----14----14---------------------------------------------------------|
A||-12--12h15p12-15----15------------------------------------------------------------------|
E||----------------------------------------------------------------------------------------|

e||-18p15----------------------------------------------------------------------------------|
B||-------17----17-------------------------------------------------------------------------|
G||----------18----18-15-18p15----15-------------------------------------------------------|
D||----------------------------17----17-14-17p14----14-------------------------------------|
A||----------------------------------------------16----16-13-16p13-------------------------|
E||----------------------------------------------------------------15~~~~------------------|
                                                                                           |
                                                                                           |---> *
                                                                                           |
e||-17p14----------------------------------------------------------------------------------|
B||-------16----16-------------------------------------------------------------------------|
G||----------17----17-14-17p14----14-------------------------------------------------------|
D||----------------------------16----16-13-16p13----13-------------------------------------|
A||----------------------------------------------15----15-12-15p12-------------------------|
E||----------------------------------------------------------------14~~~-------------------|

e||-15p12----14p11-----15p12----14p11----15p12----14p11----15p12----14^^-------------------|
B||-------12-------12--------12-------12-------12-------12-------12------------------------|
G||----------------------------------------------------------------------------------------|
D||----------------------------------------------------------------------------------------|
A||----------------------------------------------------------------------------------------|
E||----------------------------------------------------------------------------------------|

e||-15-14-12-11----------------------------------------------------------------------------|
B||-------------13-12-10-------------------------------------------------------------------|
G||----------------------12-11-9-8---------------------------------------------------------|
D||--------------------------------10-9-7--------------------------------------------------|
A||---------------------------------------10-9-7-6-----------------------------------------|
E||------------------------------------------------8-7-5-3\2p0-0---------------------------|
Acordes para:
    Compositor: Yngwie MalmsteenColaboración y revision:
    • Marcos Júnior
    • Vinicius Neves
    • Victor Ferraz

    0 comentarios

      mostrar más comentarios

      ¿Conseguiste tocar?

      8tocaron0aún no

      ¡Graba un vídeo tocando Arpeggios From Hell y envianoslo!

      00:00 / 00:00
      outros vídeos desta música
      repetirqualidadeautomática
      Outro vídeos desta música
        00:00 / 00:00
        automática
        OK