Cifra Club

Making Love

Yngwie Malmsteen

Cifrado: Principal (guitarra y guitarra eléctrica)
Selo Cifra Club: esta cifra foi revisada para atender aos critérios oficiais da nossa Equipe de Qualidade.
tono: Bm
 p.s.
E|---------------|--------------0---------|----------------------2----------|
B|---------------|--0-----------0----5----|------------5---------3----------|
G|---x\----------|--0-----------0----5----|------------5---------2----------|
D|---------------|--2----------------5----|------------5---------0----------|
A|---------------|--2----------------3----|------------3--------------------|
E|---------14\---|--0--0--0--0------------|--0--0--0------------------------|

E|------------2------------|-----------------------|-------------0----------|
B|------------3------------|------------5----------|-0-----------0-----5----|
G|------------2------------|---2---2----5------5\--|-0-----------4-----5----|
D|------------0------------|---2--------5------5\--|-2-----------2-----5----|
A|------------0-------4~---|------------3------3\--|-2-----------------3----|
E|-0--0--0-----------------|-----------------------|-0--0--0--0-------------|

E|--------------2----|---------------------|--------------------------------|
B|--------------3----|-----------3---------|--------5-----------------------|
G|----------5---2----|-----------2---------|--2--2--5-----------------------|
D|----------5---0----|-----------0---------|--2-----5-----5-----------------|
A|----------3---0----|-----------0-----4~--|--------------3---0-------------|
E|-0--0--0-----------|--0--0--0------------|-----------------------3--------|

E|--------------0----------|---------------2----|---------------------------|
B|--0-----------0-----5----|---------------3----|------------3--------------|
G|--0-----------4-----5----|----------5----2----|------------2--------------|
D|--2-----------2-----5----|----------5----0----|------------0--------------|
A|--2-----------------3----|----------3----0----|------------0-----4~-------|
E|--0--0--0--0-------------|-0--0--0------------|---0--0--0-----------------|

E|-----------------|
B|------------5----|
G|---2---2----5----|
D|---2--------5----|
A|-----------------|
E|-----------------|


Verse
             To be lonely                     is my
             Every subway                      every

E|-------------------------|----------------------0--|-----------------------|
B|--------------0----------|-------------------0-----|-0---------------------|
G|-----------0-----0-------|----0-----------0--------|----0-------0----------|
D|--------4-----------4----|-------4-----4-----------|-------4-------4-------|
A|-----2-------------------|-3--------3--------------|----------5-------5--4-|
E|--0----------------------|-------------------------|-----------------------|


only trust                  In my silent movies
crowded street              Feeding my emotions

E|--------------------0-----|-------------------------|----------------------|
B|-----------------------0--|-------------0-----------|-0-----------------0--|
G|----0--------0------------|----------0-----0--------|----0--------0--------|
D|-2-----2--------2---------|-------4-----------4--0--|-------4--------4-----|
A|----------4---------------|----2--------------------|----------3----------3|
E|--------------------------|-0-----------------------|----------------------|


I can expose my lust
we pass but never meet

E|-------------------------|--0-----------0--0------------------------------|
B|-0-----------------------|--------0-----------0---------------------------|
G|----0--------0-----------|-----0-----0-----------0------------------------|
D|-------4--------4--------|------------------------------------------------|
A|----------5--------5--4--|------------------------------------------------|
E|-------------------------|------------------------------------------------|

Taking snapshots in the light  That I
My touch is two dimensional    I slowly

E|--------------------------|----------------------7--|----------------------|
B|--4--4--4--4--4--4--4--4--|-5--5--5--5--5--5--5--7--|----------------------|
G|--4--4--4--4--4--4--4--4--|-4--4--4--4--4--4--4--6--|----------------------|
D|--6--6--6--6--6--6--6--6--|-6--6--6--6--6--6--6-----|----------------------|
A|--------------------------|-------------------------|----------------------|
E|--------------------------|-------------------------|----------------------|

do recall when I retire                            Playing with my
close my eyes and think of you                     More or less in-

E|--7-----6-----------------|----------------9----|-------------------------|
B|--7-----7-----7--7--7--6--|-6--6--6--6--6--6--6-|----------------4-----5--|
G|--6--6--6--6--6--6--6--6--|-6--6--6--6--6-----6-|-4--4--4--4--4--4-----4--|
D|-----6-----6--6--6--6--6--|-6--6--6--6--6-------|-6--6--6--6--6-----6-----|
A|--------------------------|---------------------|-------------------------|
E|--------------------------|---------------------|-------------------------|

fantasies I let the curtain fall  in my desire
visable, still you're my point of view  I can't get to you
                                                              p.s.
E|-------------------------|-------------------------|-------x\--x\---------|
B|-------5--------5--------|----------------2--------|----------------------|
G|-4--4--4-----4--4-----4--|-4--3--3-----3--------6~-|--6~------------------|
D|-6--6--6--6--6--6-----4--|-4--4--4--4--------4--6~-|----------------------|
A|-------------------------|-------------------------|----------------------|
E|-------------------------|-------------------------|-----------------12\--|


Still I need that touch for real     To discover

Pre-chorus
E|----------------------|-----------------|---------------------------------|
B|----------------------|-----------------|---------------------------------|
G|---2-----5-----4---7--|--9--8--7--5--4--|-5--4--2--5---------4--------7---|
D|---2-----3-----3---5--|--7--7--7--7--5--|-7--5--2--3---------3--------5---|
A|---0--------0--0---0--|-----------------|--------------0--0-----0--0------|
E|----------------------|-----------------|---------------------------------|

and to feel    you're the one that breaks my heart

E|----------0--------|--------------------|----------------|-----------------|
B|-------------------|--------------------|----------------|-----------------|
G|------7------------|--2---5-----4----7--|-9--8--7--5--4--|-----------------|
D|------5------------|--2---3-----3----5--|-7--7--7--7--5--|-----------------|
A|-------------7\----|--0------0--0----0--|----------------|-----------------|
E|-------------------|--------------------|----------------|-----------------|

And it's tearing me apart


E|---------------------------------|----------------------------------------|
B|---------------------------------|-------0----7----0----0-----------------|
G|-5--4--2--5---------4--------7---|---7---0----5----0----0-----------------|
D|-7--5--2--3---------3--------5---|---5------------------0-----------------|
A|--------------0--0-----0--0------|----------------------0-----------------|
E|---------------------------------|----------------------------------------|


Making love to you baby  Making love it's all I want

Chorus
E|-----------------------|------------------|----------------|--------------|
B|---------------0-------|--------------3---|--------3-------|--------------|
G|---------------0----5--|----------5---2---|--------2-------|---2--5~------|
D|--2------------2----5--|----------5---0---|--------0-------|-2----5~------|
A|--2------------2----3--|----------3-------|--------0----4~-|--------------|
E|--0---0--0--0----------|-0--0--0----------|-0-0--0---------|--------------|


Making love to you baby  Making love

E|-----------------------|------------------|----------------|--------------|
B|---------------0-------|--------------3---|--------3-------|--------------|
G|---------------0----5--|----------5---2---|--------2-------|---2--5~------|
D|--2------------2----5--|----------5---0---|--------0-------|-2----5~------|
A|--2------------2----3--|----------3-------|--------0----4~-|--------------|
E|--0---0--0--0----------|-0--0--0----------|-0-0--0---------|--------------|


Solo
w/echo
E|-/21-18h21p18\15h18p15h18p15h18p15\12-15p12\9h12p9h12p9\| 6h7-9~--/15~-----|
B|--------------------------------------------------------|-----------------|
G|--------------------------------------------------------|-----------------|
D|--------------------------------------------------------|-----------------|
A|--------------------------------------------------------|-----------------|
E|--------------------------------------------------------|-----------------|

E|-14-15-12-15----15----15----15--------|-15-14p12----14p12-------12-------12-|
B|-------------15----14----12----11tr12-|----------15-------15p14----14h15----|
G|--------------------------------------|-------------------------------------|
D|--------------------------------------|-------------------------------------|
A|--------------------------------------|-------------------------------------|
E|--------------------------------------|-------------------------------------|

E|------------------------|-10p9----9h10----12p9h10h12/14p10-12-14h15p14p12-14-|
B|-15p14p12----14p12------|------12------12------------------------------------|
G|----------14-------15~--|----------------------------------------------------|
D|------------------------|----------------------------------------------------|
A|------------------------|----------------------------------------------------|
E|------------------------|----------------------------------------------------|

E|-12---------------------|----------------------------------------------------|
B|----15p14p12-14p12p11---|----14p12p11----------0-----------------------------|
G|----------------------12| p11----------11h12p11---12p11p9---------------------|
D|------------------------|--------------------------------12p11p9-9h11p9\8----|
A|------------------------|-------------------------------------------------10-|
E|------------------------|----------------------------------------------------|

E|--------|------------------|--------------15\------------------------------|
B|--------|---------------2--|-----------------------------------------------|
G|--------|--6\4--4bf-~------|--0h3~-----------------------------------------|
D|--------|------------------|-----------------------------------------------|
A|--------|------------------|--------/10---------/13------------------------|
E|-7-12\--|------------------|----------------------------12\----------------|

E|-3p0-------0-3-6p3-------3-6/9p6-------6-9/12p9----------9-12-| /15--14-14--|
B|-----2---2---------5---5---------8---8----------11----11------|------------|
G|-------3-------------6-------------9---------------12---------|------------|
D|--------------------------------------------------------------|------------|
A|--------------------------------------------------------------|------------|
E|--------------------------------------------------------------|------------|

                        1/2
E|-12-12-14-14/21-21\13-|-13b--12----14-12-------12---------------------------|
B|----------------------|---------15-------15p14----15p14p12-15p14p12---------|
G|----------------------|---------------------------------------------15------|
D|----------------------|-----------------------------------------------------|
A|----------------------|-----------------------------------------------------|
E|----------------------|-----------------------------------------------------|

E|-------------|-------------------------------------------------------------|
B|-15p14p12----|-11h12p11----11----------12----11----------------------------|
G|-------------|----------14----14p12p11----14----14p12p11-11~---------------|
D|----------0--|-------------------------------------------------------------|
A|-------------|-------------------------------------------------------------|
E|-------------|-------------------------------------------------------------|

                                1/2
E|----------------------------------------------------------------------------|
B|-14/17p15p14\12-14h15p14p12----14b-rb14p12-14b-rb14-12-15-14-12-11-15-14-12-|
G|----------------------------15----------------------------------------------|
D|----------------------------------------------------------------------------|
A|----------------------------------------------------------------------------|
E|----------------------------------------------------------------------------|

E|-------|--------------------------------------------------------------------|
-11-15-|-14-12-11-15-14-12-11-15-14-12-11-15-14-12-11-15-14-12-11/17-15-14p-|
E|-------|--------------------------------------------------------------------|
E|-------|--------------------------------------------------------------------|
E|-------|--------------------------------------------------------------------|
E|-------|--------------------------------------------------------------------|

E|----------|-------------------------------------------------/14-14-14-15p14-|
B|-12-15-14-|-12-11-12-13-14-11-------------11h12h14p12p11-12-----------------|
G|----------|-------------------12p11----12-----------------------------------|
D|----------|-------------------------14--------------------------------------|
A|----------|-----------------------------------------------------------------|
E|----------|-----------------------------------------------------------------|

E|-p12----|---------------------------------|
B|-----15-|-14-12-11-12---------------------|
G|--------|-------------12p11p9-------------|
D|--------|---------------------12p11p9-8~--|
A|--------|---------------------------------|
E|--------|---------------------------------|

E|-------4--4-------4--4-------4--|--4--------------------|-4----------------|
B|-------4--4-------4--4-------4--|--4------------------4-|-4----------------|
G|--6bf--------6bf--------6bf-----|-----6-4/6~----4h6h7---|----7p6p4---6~----|
D|--------------------------------|-------------6---------|----------6-------|
A|--------------------------------|-----------------------|------------------|
E|--------------------------------|-----------------------|------------------|

E|--------4-----------|-------------16--------------------------21bf---------|
B|------4-------------|---/16----16----19-16---------------------------------|
G|--6bf------7p6p4----|-4-----19-------------19-18p16----18~-----------------|
D|-----------------6--|-------------------------------18---------------------|
A|--------------------|------------------------------------------------------|
E|--------------------|------------------------------------------------------|

hold bend             1/2
E|------21-21-21-21-21-21b---21-21-21-|-16-18-19p18p16-18p16----16------------|
B|------------------------------------|----------------------19----19p16------|
G|------------------------------------|----------------------------------18bf-|
D|------------------------------------|---------------------------------------|
A|------------------------------------|---------------------------------------|
E|------------------------------------|---------------------------------------|

E|----16-------------------------------|--------------------------------------|
B|-16----19p16-------------------------|------------------------------16-19---|
G|-------------19p18p16----18p16----18-| p16~-----18p16-----18p16-18bf---------|
D|----------------------18-------18----|-----18~-------18~--------------------|
A|-------------------------------------|--------------------------------------|
E|-------------------------------------|--------------------------------------|

E|----16----------|---------------------|-15/17p15-13-17-15p13-12-15p13p12-10-|
B|-16-----19bf~---|-------19bf---rb19---|-------------------------------------|
G|----------------|---------------------|-------------------------------------|
D|----------------|---------------------|-------------------------------------|
A|----------------|---------------------|-------------------------------------|
E|----------------|---------------------|-------------------------------------|

E|-13p12p10-8-12p10p8-----12| p10p8-7-10p8p7-5-8--------------------|----------|
B|--------------------12----|-------------------8p5-6p5-8bf--rb8---|----------|
G|--------------------------|------------------------------------9-|-7p5h7p5h7|
D|--------------------------|--------------------------------------|----------|
A|--------------------------|--------------------------------------|----------|
E|--------------------------|--------------------------------------|----------|

                                                    1/2
E|----------------7h8h10/12-|-12h13----12~-----------7b-|-rb7~--5-----------|
B|-------5h6h8/10-----------|-------15-----15-13p12-----|---------8bf~------|
G|-4h5h7--------------------|---------------------------|----------------5--|
D|--------------------------|---------------------------|--------------7----|
A|--------------------------|---------------------------|-------------------|
E|--------------------------|---------------------------|-------------------|

E|------------------------------|--------------|------12----12--------------|
B|-5-6-5-8-6-5------------------|--------------|-15bf----------15bf--/15----|
G|-------------7bf--7p5--7p5bf--|----------3*--|----------------------------|
D|------------------------------|--------------|----------------------------|
A|------------------------------|--------------|----------------------------|
E|------------------------------|--7/12\-------|----------------------------|

E|-----------------/22-/22--|-----------/20-/20------------------------------|
B|-/17-/17-/17\-------------|-12\--12\----------------12-12-12h13-12-12h13-12|
G|--------------------------|--------------------14bf------------------------|
D|--------------------------|------------------------------------------------|
A|--------------------------|------------------------------------------------|
E|--------------------------|------------------------------------------------|

E|--------|
B|-13p12--|
G|--------|
D|--------|
A|--------|
E|--------|

Chorus
You're the one that breaks my heart and it's tearing me
Making love                           Making love


apart

E|-------------------17h19h20~\--|-14----14--14----14-14----14-14-14---------|
B|----------17h19h20-------------|-17bf------17bf-----17bf-----------17bf----|
G|-16h17h19----------------------|-------------------------------------------|
D|-------------------------------|-------------------------------------------|
A|-------------------------------|-------------------------------------------|
E|-------------------------------|-------------------------------------------|

E|--------------|-------14---------------------------------------------------|
B|-17bf--17bf~--|-14-------17p14-------14----14------------------------------|
G|--------------|-16bf-----------16bf-----16----17p16p14----16~--------------|
D|--------------|----------------------------------------16------------------|
A|--------------|------------------------------------------------------------|
E|--------------|------------------------------------------------------------|

E|---------------------------------------------------------------14---------|
B|-/9-12-9-10h12-14-10-12-14-15-12-14-15-17-14-15-17/19-15-17-19------------|
G|--------------------------------------------------------------------------|
D|--------------------------------------------------------------------------|
A|--------------------------------------------------------------------------|
E|--------------------------------------------------------------------------|

E|------14----------------------|---------14------------14--------------------|
B|-17bf------15bf~--------------|------14----17p14---------17-14------14------|
G|-----------14bf~--17p16-14h16-|-16bf-------------16bf----------16bf----16bf-|
D|------------------------------|---------------------------------------------|
A|------------------------------|---------------------------------------------|
E|------------------------------|---------------------------------------------|

                                     1/2   1 1/2
E|---------------------|------17-19-21-21b---21b----|-21b~--------17bf-------|
B|-14------------------|--/21-----------------------|------------------------|
G|----17p16p14----16~--|----------------------------|------------------------|
D|-------------16------|----------------------------|------------------------|
A|---------------------|----------------------------|------------------------|
E|---------------------|----------------------------|------------------------|

E|-p16p14------------|-------------------------------------------------------|
B|--------17-16-15~--|-0-----------------------------------------------------|
G|-------------------|---6-7p6---6---6-9p7p6-6---6-7p6---6---6-7p6-----------|
D|-------------------|---------9---9-----------9-------9---9-------9---------|
A|-------------------|-------------------------------------------------------|
E|-------------------|-------------------------------------------------------|

E|-----------------------------------------9----10p9-|----9------------------|
B|-------------9---7-9p7---10-7-9-10-10-12---12------|-12---12-10-9----9-----|
G|-6---6-7p6-----9-------9---------------------------|--------------11---11--|
D|---9-------9---------------------------------------|-----------------------|
A|---------------------------------------------------|-----------------------|
E|---------------------------------------------------|-----------------------|

E|------------------------9-12-10-9------11-12| p11----11-12p11----10-12p10----|
B|--------------9-9-10-12-----------9---------|----14----------14----------14-|
G|--10h11-10h11-----------------------11------|-------------------------------|
D|--------------------------------------------|-------------------------------|
A|--------------------------------------------|-------------------------------|
E|--------------------------------------------|-------------------------------|

E|-10h12p10-----10-------------|
B|----------114----12-14p12-10-|
G|-----------------------------| fade out
D|-----------------------------|
A|-----------------------------|
E|-----------------------------|

* natural harmonic
\/slide
h hammeron
p pulloff
p.s. pick scrape
bf bend full
rb release bend
Otros videos de esta canción
    12 exhibiciones
      • ½ Tono
      • Am
      • Bbm
      • Bm
      • Cm
      • C#m
      • Dm
      • Ebm
      • Em
      • Fm
      • F#m
      • Gm
      • G#m
    • Agregar a la lista

    Afinación de cifrado

    Afinador online

      OK