Cifra Club

Baby Clothes

You Am I

Cifrado: Principal (guitarra y guitarra eléctrica)
Selo Cifra Club: esta cifra foi revisada para atender aos critérios oficiais da nossa Equipe de Qualidade.
tono: Eb
  Bb7 Gb7 Db7 Eb7 G7 Ab7 F7 Eb
E|--6---2---9---11--3--4---1-----|
B|--9---5---12--14--6--7---4--8--|
G|--7---3---10--12--4--5---2--8--|
D|--6---2---9---11--3--4---1--8--|
A|--8---4---11--13--5--6---3--6--|
E|--6---2---9---11--3--4---1-----|



[Verse 1]
Bb7                            Gb7
  I had that something from my head to my eye
Bb7                        Gb7
  Just as I made it to the front of the line
Bb7                       Db7
  I only seen them out in front of the rehab
Eb7
  My buddy's check form is all blown to sag
Bb7                              Gb7
And just because I'm spoonfed on milo and cheese
         Bb7                              G7
Don't go shooting every dog just 'coz one of us got fleas
Ab7                G7   Gb7 F7
  And if you don't want to  grow wear some


[Chorus]
Bb7  Eb
Baby clothes
Bb7  Eb
Baby clothes
Bb7  Eb
Baby clothes
Bb7  Eb
Baby clothes
Bb7  Eb
Baby clothes
Bb7  Eb
Baby clothes
Bb7  Eb
Baby clothes
Bb7  Eb
Baby clothes

Bb7


[Verse 2]
Bb7                   Gb7
   And I'm so sick of sickness yeah
Bb7                            Gb7
   Why do I write the songs so dickless yeah
Bb7                              Db7
   An' just cause I'm too fat on cheap smokes and wine
             Eb7
I can't look over your fat shoulder and make rock 'n' roll mine
Bb7                             Gb7
   Been hearing so much chitter chatter chitter chatter
Bb7                               Gb7
   And now I found something that matters, matters, matters, matters.
Ab7                 G7   Gb7 F7
   But if you don't want to  grow wear some


[Chorus]
Bb7  Eb
Baby clothes
Bb7  Eb
Baby clothes
Bb7  Eb
Baby clothes
Bb7  Eb
Baby clothes
Bb7  Eb
Baby clothes
Bb7  Eb
Baby clothes


           Bb7    Eb
And if the bar is closed
  Bb7           Eb
I don't want to know


[Outro]

Bb7 Db7 Ab7 Eb7

(x2)

E|----------------------------------------------------------------|
B|----------------------------------------------------------------|
G|------------------------------6-------------------------------8-|
D|---------------8----------6-8----------------6-----------8-10---|
A|----------8-10----4-4-6/8----------------6-8----6-6-8/10--------|
E|-6-6-8/10------------------------4-4-6/8------------------------|
Otros videos de esta canción
    4 exhibiciones
      • ½ Tono
      • A
      • Bb
      • B
      • C
      • Db
      • D
      • Eb
      • E
      • F
      • F#
      • G
      • Ab
    • Agregar a la lista

    Afinação da cifra

    Afinador online

      Ops (: Contenido disponible solo en portugués.
      OK