Cifra Club

Close Your Eyes

Young Love

Cifrado: Principal (guitarra y guitarra eléctrica)
Selo Cifra Club: esta cifra foi revisada para atender aos critérios oficiais da nossa Equipe de Qualidade.
tono: F
Intro

e|----------------------------------|
B|---4--4----3--3----1--1-1---------|
G|--3--3--3-3--3--3-3--3---2--30----|
D|-5--5--5-5--5--5-3--3--3--31--0---|x3
A|----------------------------------|
E|----------------------------------|

Chorus

e|---------33-3-333--------11-1-111-|
B|-44-4-44433-3-33311-1-11111-1-111-|
G|-33-3-33333-3-33333-3-33333-2-222-|
D|-55-5-55555-5-55533-3-33333-3-333-|x2
A|----------------------------------|
E|----------------------------------|

Play Intro and Chorus again

2nd part

e|-333-333-333-333-333-----------------------------------------------------|
B|-444-444-444-444-444-444-444-44333-333-33----------------4444444433333333|
G|-333-333-333-333-333-333-333-33333-333-33----------------3333333333333333|
D|-555-555-555-555-555-555-555-55555-555-55----------------5555555555555555|
A|-------------------------------------------10--01--10--0-----------------|
E|-----------------------------------------33--11--33--33------------------|

e|-------------------------|
B|-444-444-44333-333-333-33|
G|-333-333-33333-333-333-33|
D|-555-555-55555-555-555-55|
A|-------------------------|
E|-------------------------|

e|----------------------------------------------------------------|
B|----------------------------------------------------------------|
G|----------------------------------------------------------------|
D|----------------------------------------------------------------|
A|--10--01--10--01--10--01--10--01--10--01--10--01--10--01--10--0-|
E|33--11--33--11--33--33--33--33--33--33--33--33--33--33--33--33--|

Chorus repeats for the rest of the song.

Otros videos de esta canción
    1.603 exhibiciones
      • ½ Tono
      • A
      • Bb
      • B
      • C
      • Db
      • D
      • Eb
      • E
      • F
      • F#
      • G
      • Ab
    • Agregar a la lista

    Afinación de cifrado

    Afinador online

      OK