Cifra Club

Anagram

Young The Giant

Cifrado: Principal (guitarra y guitarra eléctrica)
tono: G
[Intro]

E|----------------------------------------------------------------|
B|----------------------------------------------------------------|
G|----------------------------------------------------------------|
D|--------7----9----7-----------7---9---7-------------7----9---7--|
A|---5----------------------5-------------------5--5--------------|
E|----------------------------------------------------------------|

E|----------------------------------------------------------------|
B|----------------------------------------------------------------|
G|----------------------------------------------------------------|
D|-------------5-----7-----5--------------------------------------|
A|------3---------------------------------------------------------|
E|----------------------------------------------------------------|

[Pré-Refrão]

              G         C        D        G
E|------------3--------(5)------(7)------(12)---------------------|
B|------------3---------5--------7--------12----------------------|
G|------------4---------5--------7--------12----------------------|
D|------------5---------5--------7--------12----------------------|
A|------------5---------3--------5--------10----------------------|
E|------------3---------x--------x--------x-----------------------|

[Ponte]
                                                 
E|-----------5------5/----3--------------7----8---10--------------|
B|-----------7------7/----5--------------9----10--12--------------|
G|-----------7------7/----5--------------9----10--12--------------|
D|----------------------------------------------------------------|
A|----------------------------------------------------------------|
E|----------------------------------------------------------------|
              
E|---------7---------------10-------------------------------------|
B|---------9---------------12-------------------------------------|
G|---------9---------------12-------------------------------------|
D|----------------------------------------------------------------|
A|----------------------------------------------------------------|
E|----------------------------------------------------------------|
           
[Refrão]

(Guitar 1)

E|---------------10--------------------10------------------10-----|
B|-----------12-----12-12----------12-----12-12------------12-----|
G|------------------------12--------------------12---------12-----|
D|---------------------------------------------------------10-----|
A|---------------------------------------------------------10-----|
E|---------------------------------------------------------10-----|
           
(Guitarra 2)

E|---------------------10-----------------------------10----------|
B|------10-----8---------------8--------10/12---8----------8------|
G|----------------------------------------------------------------|
D|----------------------------------------------------------------|
A|----------------------------------------------------------------|
E|----------------------------------------------------------------|

[Primeira Parte]

People 
G
In the middle
Life's a riddle
                D  (Down Strum once)
Not a game of dice
                              G
Not for a man who rolls with us
G  G  G  G
G
Days turn
C             G       
Faster than a minute
C                 G      
How was I to know this?
C                     G     
Would you even notice me?
G              D (Down strum once)
Cause they're imposters
Am                G
We threw away the time

( G  G  G  G )

[Refrão]

G
Anagram
G                        
I'm just a messenger man
Am       Bm
It's the last time around
One of these days I wish you were
G           
A hologram
G
If we're just passengeres then
Am            Bm
I wish it was the first time around
One of these days I wish you were
   D
AH oooooh

( D  D  D  D )

[Segunda Parte]

G
All the people in
C                          G
White stockings talk with pride
C                         G
They'll be lifting up the flags high
C            G
Which will I decide?
G             D
Cause they're imposters
D
I'm making up

[Refrão]

G
Anagram
G
I'm just a messenger man
Am       Bm
It's the last time around
One of these days I wish you were
G
A hologram
G
If we're just passengeres then
Am                Bm
I wish it was the first time around
One of these days I wish you were
G
Ah oooooh

( G  G  G  Am  Am  Am  D )

[Terceira Parte]

Collide
A stain in the light of your eyes
Bb           Am      G  
I'll see you another time
D            C        G
Come on baby roll the dice
Bb                Am         G  
I'm feeling like it's gonna break
D              Am    C
This time will stars align?
Bb            Am               G
I'm thinking that it's all the same
G  Bm  Em

[Refrão]
G
Anagram
G
I'm just a messenger man
Am       Bm
It's the last time around
One of these days I wish you were
G
A hologram
G
If we're just passengeres then
Am                Bm
I wish it was the first time around
One of these days I wish you were
G
Ah oooooh

( G  G  G  G  G  Em  Em  Em  Em  Em  Am  G  G  G  G  G  Am  Em  Em  Em  Em  Em  Am  G )

C     G
Anagram
C     G
Anagram
           G
00:00 / 00:00
Otros videos de esta canción
Repetir
Otros videos de esta canción
Composición de Young the Giant
Colaboración y revisión:
  • Renato Ruppel
12 vistas
    • ½ Tono
    • A
    • Bb
    • B
    • C
    • Db
    • D
    • Eb
    • E
    • F
    • F#
    • G
    • Ab
  • Agregar a la lista

    0 comentarios

    Ver todos los comentarios

    ¿Lograste tocar?

    0 Tocaron 0 Aún no

    ¡Graba un video tocando Anagram y envíanoslo!

    00:00 / 00:00
    OK