Cifra Club

Apartment

Young The Giant

Cifrado: Principal (guitarra y guitarra eléctrica)
tono: D
Verse 1:
Bm          F#m Em            D A7
After leaving     my apartment
       F#m  Bm
I feel this cold inside me
Bm      F#m Em                      D A7
It howls away all through the market
         F#m  Bm
It calls your name

Interlude: D  Dmaj7 Cmaj7 D A7 F#m Bm

Verse 2:
Bm        F#m Em              D A7
On my way to    your apartment
        F#m Bm
I write for fear of silence
Bm         F#m Em                  D A7
You carved a boat to sell my shadow
          F#m Bm
Now I walk alone

Pre-chorus: A7~   D  A7~    D  A7  A

Chorus: D  Am6 Cmaj7 G
D                  Am6         Cmaj7        G
I hit the sidewalk and this is how it starts
D                  Am6             Cmaj7        G
Hide in a raincoat when things are falling apart


Bridge:
E|---------------------------------------------------------------------------|
B|-7-5-x-7-7-7--x-x-7-5-x-5-5-5----------------------------------------------|
G|-4-4-x-6-6-6--x-x-4-4-x-6-6-6----------------------------------------------|
D|-5-5-x-7-7-7--x-x-5-5-x-7-7-7----------------------------------------------|
A|---------------------------------------------------------------------------|
E|---------------------------------------------------------------------------|

Interlude: D  Dmaj7 Cmaj7 D A7 F#m Bm

Verse:
Bm          F#m Em              D A7
After leaving     your apartment
       F#m Bm
I hear the coast by nightfall
Bm      F#m Em               D A7
So sure to  keep you dreaming
      F#m Bm
You understood


Bridge:

D  Dmaj7 Cmaj7 D   A7 F#m Bm
Oh, I    know  you understood
D       Dmaj7 Cmaj7 D A7  F#m Bm
Yes sir, it   shows I was no good


Chorus: D  Am6 Cmaj7 G
D                  Am6         Cmaj7        G
I hit the sidewalk and this is how it starts
D                  Am6             Cmaj7        G
Hide in a raincoat when things are falling apart
      D              Am6      Cmaj7     G
Cause sooner or later this is bound to stop
     D              Am6         Cmaj7   G
Come on, let's savor what we're falling over

[D  Am6 Cmaj7 G ]x2


Outro:
E|---------------------------------------------------------------------------|
B|-7-5-x-7-7-7--x-x-12-14-x-7-7-7--x-x-5-7-x-7-7-7--x-x-12-14-x-7-7-7--------|
G|-4-4-x-6-6-6--x-x-11-11-x-6-6-6--x-x-4-4-x-6-6-6--x-x-11-11-x-6-6-6--------| Play 3 Times
D|-5-5-x-7-7-7--x-x-12-12-x-7-7-7--x-x-5-5-x-7-7-7--x-x-12-12-x-7-7-7--------|
A|---------------------------------------------------------------------------|
E|---------------------------------------------------------------------------|

End on D chord
Composición de Young the Giant
Colaboración y revisión:
  • Raphael Dutra
309 vistas
    • ½ Tono
    • A
    • Bb
    • B
    • C
    • Db
    • D
    • Eb
    • E
    • F
    • F#
    • G
    • Ab
  • Agregar a la lista

    0 comentarios

    Ver todos los comentarios

    ¿Lograste tocar?

    2 Tocaron 0 Aún no

    ¡Graba un video tocando Apartment y envíanoslo!

    00:00 / 00:00
    Otros videos de esta canción
    Repetir Calidad Automático
    Otros videos de esta canción
    00:00 / 00:00
    Automático
    OK