Cifra Club

Cough Syrup

Young The Giant

Cifrado: Principal (guitarra y guitarra eléctrica)
tono: C
[Intro] C  G  F  G

E|-----------------------------------------------------------------|
B|-----1---0---0-----------------0-----0---------------------------|
G|-----------------2---2-0---0-2-----0-----2---2---0---0-----------|
D|---2---------------------------------------------------3--2----3-|
A|-3-----3---3---3---3-----3---------------------------------------|
E|---------------------------------3-----3---3---3---3----3----3---|

E|-----------------------------------------------------------------|
B|---------0---0---1---1---3---3-------0---1---1---3~--------------|
G|-----2-----------------------------0-----------------------------|
D|---3---3---3---3---3---3---3---3---------------------------------|
A|-----------------------------------------------------------------|
E|-1-------------------------------3-----3---3---3-3~--------------|

C                                    G
Lifes too short to even care at all oh
F                                        G
Im losing my mind losing my mind losing control
C                                             G
These fishes in the sea theyre staring at me oh oh

Oh oh oh oh
F                                      G
A wet world aches for a beat of a drum Oh
Am
If I could find a way to see this straight
G
Id run away
                     F
To some fortune that I
Am                G
should have found by now
                 F         Am            G
I'm waiting for this cough syrup to come down

( C  G  F  G )

C                                    G
Lifes too short to even care at all oh
F                                          G
Im coming up now coming up now out of the blue oh
C
These zombies in the park theyre looking for my heart
G
Oh oh oh oh
F                                          G
A dark world aches for a splash of the sun oh oh

Am
If I could find a way to see this straight
G
Id run away
                     F          Am            G
To some fortune that I I should have found by now

                                               Am
And so I run out to the things they said could restore me
                 G
Restore life the way it should be
                     F     Am            G
Im waiting for this cough syrup to come down

C                                    G
Lifes too short to even care at all oh
F                                        G
Im losing my mind losing my mind losing control

( C  G  F  Am  G )
( C  G  F  Am  G )
( C  G  F  Am  G )

Am
If I could find a way to see this straight
G
Id run away
                     F               Am       G
To some fortune that I I should have found by now

                                           Am
So I run out to the things they said could restore me
                 G
Restore life the way it should be
                     F     Am         G
Im waiting for this cough syrup to come down

C                                      G
One more spoon of cough syrup now whoa oh
F                                      G
One more spoon of cough syrup now whoa oh
00:00 / 00:00
Otros videos de esta canción
Repetir
Otros videos de esta canción
Composición de Ehson Hashemian / Young the Giant
4.424 vistas
    • ½ Tono
    • A
    • Bb
    • B
    • C
    • Db
    • D
    • Eb
    • E
    • F
    • F#
    • G
    • Ab
  • Agregar a la lista

    0 comentarios

    Ver todos los comentarios

    ¿Lograste tocar?

    25 Tocaron 3 Aún no

    ¡Graba un video tocando Cough Syrup y envíanoslo!

    00:00 / 00:00
    OK