Cifra Club

Again

Yui

Cifrado: Principal (guitarra y guitarra eléctrica)
tono: Em
[Intro] D9
        Em  D  C  B7
        Em  D  C  B7

[Riff 1] 

   D9
E|-0-----0------0-----0---------------------|
B|---3-----3------3-----3-------------------|
G|-----2-----2------2-----2-----------------|
D|------------------------------------------|
A|------------------------------------------|
E|------------------------------------------|

[Riff 2]

E|------------------------------------------|
B|------8-7----------8-7-8/10-8-7-----------|
G|----7-----7~-----7--------------8~--------|
D|-/9-----------/9--------------------------|
A|------------------------------------------|
E|------------------------------------------|

E|------------------------------------------|
B|------8-7----------8-7--------------------|
G|----7-----7~-----7-----8h9p8h9p8h9p8h9p8--|
D|-/9-----------/9--------------------------|
A|------------------------------------------|
E|------------------------------------------|

[Primeira Parte]

Em           D        C7M
   Yume no tsuzuki oikaketeita hazu nano ni
Em        D          C7M
   Magarikunetta hosoi michi hito ni tsumazuku
Em                           D                     
   Ano koro ni mitai ni tte modoritai wake janai no 
 C7M
Nakushitekita sora wo sagashiteru
Em                         D                      
   Wakattekuremasu you ni gisei ni natta you na 
 C7M
Kanashii kao wa yamete yo

[Pré-Refrão]

Em
   Tsumi no saigo wa namida janai yo

Zutto kurushiku seotte kun da

Deguchi mienai kanjou meiru ni
 C       D
Dare wo matteru no
Em
   Shiroi NOOTO ni tsuzutta you ni

Motto sunao ni hakidashitai yo

Nani kara nogaretainda
 C     D
Genjitsu tte yatsu

[Refrão]

   C                D
Kanaeru tame ni ikiterun datte
     Em           A          B
Wasurechaisou na yoru no mannaka
   C               D           Em
Bunan ni nante yatterarenai kara
    A        B
Kaeru basho mo nai no
   C               D
Kono omoi wo keshite shimau ni wa
      Em                  A        B
Mada jinsei nagai deshou (I'm on the way)
      C
Natsukashikunaru
 D
Konna itami mo kangei jan

( Em )

[Segunda Parte]

Em       D          C7M
   Ayamaranakucha ikenai yo ne aa gomen ne
Em        D            C7M
   Umaku ienakute shinpai kaketa mama datta ne
Em                      D
   Ano hi kakaeta zenbu ashita kakaeru zenbu
 C7M
Junban tsuketari wa shinai kara
Em                         D
   Wakattekuremasu you ni sotto me wo tojitanda
 C7M
Mitakunai mono made miendamon

[Pré-Refrão]

Em
   Iranai uwasa ni chotto

Hajimete kiku hatsugen docchi

Mukaiattara tomodachi datte
C       D
Uso wa yamete ne
Em
   Fukai HAATO ga iradatsu you ni

Karadan naka moeteirun da

Hontou wa kitai shiten no
 C     D
Genjitsu tte yatsu

[Refrão]

   C                D
Kanaeru tame ni ikiterun datte
     Em                A     B
Sakebitaku naru yo kikoete imasu ka
   C               D           Em
Bunan ni nante yatterarenai kara
    A        B
Kaeru basho mo nai no
   C                    D
Yasashisa ni wa itsumo kansha shiteru
         Em             A        B
Dakara tsuyoku naritai (I'm on the way)
   C
Susumu tame ni
 D
Teki mo mikata mo kangei jan

[Ponte]

 F           G          Am
Douyatte tsugi no DOA akerun dakke kangaeteru
 F     G            Am
Mou hikikaesenai monogatari hajimatterun da
 F            D
Me wo samase me wo samase

[Solo]

( Eb  F  Gm )
( Eb  F  D  D9  D )

E|------------------------------------------|
B|------------------------------------------|
G|-8-8-8-7-7-7-----8-8-8-7-7-7--------------|
D|-------------8-8-------------8-8----------|
A|------------------------------------------|
E|------------------------------------------|

E|------------------------------------------|
B|------------------------------------------|
G|------------------------------------------|
D|-8/10-12-12b14r12-------------------------|
A|------------------------------------------|
E|------------------------------------------|

E|------------------------------------------|
B|----------------------10-10-10-11-11-11---|
G|-8-8-8-10-10-10-12-12---------------------|
D|------------------------------------------|
A|------------------------------------------|
E|------------------------------------------|

E|------------------------------------------|
B|-13-13-13/15-13--15b16r15-----------------|
G|------------------------------------------|
D|------------------------------------------|
A|------------------------------------------|
E|------------------------------------------|

[Refrão]

   C             D
Kono omoi wo keshite shimau ni wa
      Em                 A  B
Mada jinsei nagai deshou
     C                  D            Em
Yarinokoshiteru koto yarinaoshite mitai kara
 A       B
Mou ichido yukou

   C                D
Kanaeru tame ni ikiterun datte
     Em                A     B
Sakebitaku naru yo kikoete imasu ka
   C               D           Em
Bunan ni nante yatterarenai kara
    A        B
Kaeru basho mo nai no
   C                    D
Yasashisa ni wa itsumo kansha shiteru
         Em             A        B
Dakara tsuyoku naritai (I'm on the way)
      C
Natsukashikunaru
 D
Konna itami mo kangei jan

[Final] Em  D  C  B7
        Em  D  C  B7  Em

E|------------------------------------------|
B|------8-7----------8-7-8/10-8-7-----------|
G|----7-----7~-----7--------------8~--------|
D|-/9-----------/9--------------------------|
A|------------------------------------------|
E|------------------------------------------|

E|------------------------------------------|
B|------8-7----------8-7--------------------|
G|----7-----7~-----7-----8h9p8h9p8h9p8h9p8--|
D|-/9-----------/9--------------------------|
A|------------------------------------------|
E|------------------------------------------|
Compositor não encontrado.
5.182 vistas
    • ½ Tono
    • Am
    • Bbm
    • Bm
    • Cm
    • C#m
    • Dm
    • Ebm
    • Em
    • Fm
    • F#m
    • Gm
    • G#m
  • Agregar a la lista

    0 comentarios

    Ver todos los comentarios

    ¿Lograste tocar?

    48 Tocaron 4 Aún no

    ¡Graba un video tocando Again y envíanoslo!

    00:00 / 00:00
    Outros vídeos desta música
    Repetir Calidad Automático
    Outros vídeos desta música
    00:00 / 00:00
    Automático
    OK