Cifra Club

Con las ganas

Zahara

Cifrado: Principal (guitarra y guitarra eléctrica)
tono: E
E|-------7-----------4-7p4---------------2-------------0-----------------|
B|-------------------5-5-----------4-------2---------0-------------------|
G|-----9-----------6---------------4---------2-------2-------------------|
D|---9-----------------------------4---------------2---------------------|
A|-0-------------4---------------2---2-4---------0-----------------------|
E|-----------------------------------------------------------------------|

E|-------7-----------4-7p4---------------2-------------0---------------0-|
B|-------------------5-5-----------4-------2---------0-------0-------0---|
G|-----9-----------6---------------4---------2-------2---------2-----2---|
D|---9-----------------------------4---------------2-------2-------2-----|
A|-0-------------4---------------2---2-4---------0---------------0-------|
E|-----------------------------------------------------------------------|

(estrofas)

E|-----------------------------------------------------------------------|
B|-----------------------------------------------------------------------|
G|-----4---------------2-------4-------4-------4-------4-------6---------|
D|---2---2-----------4---4---6---6---2---2---2---2---4---4---6---6-------|
A|-0---------------4-------6-------0---------------2-------4-------------|
E|---------4-------------------------------4-----------------------------|

E|-----------------------------------------------------------------------|
B|-----------------------------------------------------------------------|
G|-----4-------4-------2-------4-------4-------4-------4-------6---------|
D|---2---2---2---2---4---4---6---6---2---2---2---2---4---4---6---6-------|
A|-0---------------4-------6-------0---------------2-------4-------------|
E|---------4-------------------------------4-----------------------------|

(estribillo)

E|-------7-----------4-------------------2-------------0-----------------|
B|-------------------5-------------4-----2-----------0-------------------|
G|-----9-----------6---------------4-----2-----------2-------------------|
D|---9-----------------------------4---------------2---------------------|
A|-0-------------4---------------2-----4---------0-----------------------|
E|-----------------------------------------------------------------------|

E|-------7-----------4-------------------2-------------0---------------0-|
B|-------------------5-------------4-----2-----------0-------0-------0---|
G|-----9-----------6---------------4-----2-----------2---------2-----2---|
D|---9-----------------------------4---------------2-------2-------2-----|
A|-0-------------4---------------2-----4---------0---------------0-------|
E|-----------------------------------------------------------------------|
00:00 / 00:00
Otros videos de esta canción
Repetir
Otros videos de esta canción
Composición de Zahara
1.752 vistas
    • ½ Tono
    • A
    • Bb
    • B
    • C
    • Db
    • D
    • Eb
    • E
    • F
    • F#
    • G
    • Ab
  • Agregar a la lista

    0 comentarios

    Ver todos los comentarios

    ¿Lograste tocar?

    1 Tocaron 0 Aún no

    ¡Graba un video tocando Con las ganas y envíanoslo!

    00:00 / 00:00
    OK