Cifra Club

Auto Falantes

Zander

Cifrado: Principal (guitarra y guitarra eléctrica)
tono: Db (con acordes en la forma de D) Afinación: Eb Ab Db Gb Bb Eb
INTRO/REFRÃO
e | |---------------------------------------------
B | |----------------------------------------------
G | |- 4/ 6-6 ----------------------------9/--11-11
D | |--------------- 2-2---4-4---7 -7 -------------
A | |- 2/-4-4------2-2---4-4---7-7---7/--9---9---
E | |----------------0-0---2-2---5-5--------------

e | |---------------------------------------------
B | |----------------------------------------------
G | |- 4/ 6-6 ------------------------------------
D | |--------------- 2-2---4-4---7-7-7-7-7-7----
A | |- 2/-4-4------2-2---4-4--7-7-7-7-7-7----
E | |----------------0-0---2-2---5-5-5-5-4-4------

e | |---------------------------------------------
B | |----------------------------------------------
G | |- 4/ 6-6 ----------------------------9/--11-11
D | |--------------- 2-2---4-4---7-7 -------------
A | |- 2/-4-4------2-2---4-4---7-7---7/--9---9---
E | |----------------0-0---2-2---5-5------------------

e | |---------------------------------------------
B | |----------------------------------------------
G | |- 4/ 6-6 ------------------------------------
D | |--------------- 2-2----4-4---7-7-7-7-7-7----
A | |- 2/-4-4------2-2----4-4---7-7-7-7-7-7--
E | |----------------0-0----2-2---5-5-5-5-4-4------



Agora sim estamos quase (.....)  (VERSO 1)
E|-------------------------------
B|-6-6---------------------------
G|-6-6-- 2-2---4---------------
D|-4-4-- 2-2---4---- 7-7---4--
E|--------0-0--2------5-5-0-2-0

Perto de escutar (...) (VERSO 2)
E|-------------------------------
B|-6-6---------------------------
G|-6-6---2-2---4---------------
D|-4-4---2-2---4-----7-7-7-7
E|--------0-0---2-----5-5-4-4

VERSO 1
Gritando nos auto falantes 
VERSO 2
A voz de todos nós
VERSO 1 (ABAFADO)
Queimando combustível
VERSO 2 (ABAFADO
Longe de tudo o que é seu
VERSO 2 (ABAFADO)
Se a gente vale o quanto tenta
VERSO 1 (ABAFADO)
E tudo o que viveu

PRÉ REFRÃO
A                          B
Foi no máximo até distorcer

(INTRO/REFRÃO)
Agora sim estamos quase perto de escutar
Gritando nos auto falantes
A voz de todos nós

VERSO 1 (ABAFADO)
Queimando combustivel
VERSO 2 (ABAFADO)
Longe de tudo o que é seu
VERSO 1 (ABAFADO)
Se a gente vale o quanto tenta
VERSO 2 (ABAFADO)
E tudo o que viveu

PRÉ REFRÃO
A              B
Foi no máximo até distorcer
A                   B
Quando for possível me ouvir dizer

PONTE
Db            A          B           A
Que eu não prometo nada, nem estou aqui para dizer O que se deve fazer

Db         A                B
Apenas mostro os cortes pra não perder
(A| |-4---------------4
 E|  |-- -5-2-0-2-5
-----------------------------
Db           A         B                     A
O foco e a direção e eu sei que a gente fica pra traz se não puder vencer
Db        A            B
E o medo de escutar nossa própria voz
A|-4-----------4-
E|---5-2-0-2-5---   (4x)

B       A          Em         B  A Em
Longe de casa perto de nós mesmos
B           A      Em            B    A Em
Em bairros nobres, subúrbios e centros

Db         A           B             A
Que eu não prometo nada, nem estou aqui para dizer O que se deve fazer

Db           A         B
Apenas mostro os cortes pra não perder
(A| |-4-----------------4
 E|  |-- -5-2-0-2-5             (4x)

Db          A          B                     A
O foco e a direção e eu sei que a gente fica pra traz se não puder vencer
Db         A            B
E o medo de escutar nossa própria voz

                                                                   Variação
(A||-4----------------4---|(A||---|(-4-----------------4-------------4-----------4---------------4
E||---5-2-0-2-5-----|(E||---| -- -5-2-0-2-5----5-2-0-2-5--5-2-5-2----5-2-0-2-5---5
00:00 / 00:00
Otros videos de esta canción
Repetir
Otros videos de esta canción
Composición de Gabriel Zander
Colaboración y revisión:
  • Jordan Evans
60 vistas
    • ½ Tono
    • A
    • Bb
    • B
    • C
    • Db
    • D
    • Eb
    • E
    • F
    • F#
    • G
    • Ab
  • Agregar a la lista

    0 comentarios

    Ver todos los comentarios

    ¿Lograste tocar?

    0 Tocaron 0 Aún no

    ¡Graba un video tocando Auto Falantes y envíanoslo!

    00:00 / 00:00
    OK