Cifra Club

Meia Noite

Zander

Cifrado: Principal (guitarra y guitarra eléctrica)
tono: A
E|------------------------------|
B|------------------------------|
G|------------------------------|
D|------------------------------|
A|----4-------------4-----------|
E|---6-0-4-440-----6-0-4-440----|

E|------------------------------|
B|------------------------------|
G|------------------------------|
D|------------------------------|
A|----4-------------4-----------|
E|---6-0-4-440-----6-0-4-440----|


Eu não sei nem dizer, quanto mais explicar pra você

Eu andei por aí e confesso que agora eu vi

E|------------------------------| 8x
B|------------7-6---------------|
G|----6-10--8-------------------|
D|---8----6---------------------|
A|------------------------------|
E|------------------------------|

(Riff introdução)

Nunca quis comparar

Cada um tem seu jeito de olhar

Mas sentir algo a mais

Faz tanto que eu nem lembro mais

F#           G#             A#                     G#       F#
E eu peço desculpas, se não ser possível deixar de vir te dizer
             G#              A#                       G# F#
Às vezes eu penso de mais e o tempo não me espera mais
             G#         A#                       G#       F#
E é seu o direito de pedir pra eu me levantar e sair já daqui
             G#            A#
O daqui pra frente fodeu a gente, não controla mais


Onde tivermos que ir

( A# F G# A# )
( A# F G# )

F#            G#             A#                   G#         F#
E não tenho promessas, nem carrego juras de ser melhor dessa vez
                G#             A#        G# F#
A gente é que sabe o quanto já se fodeu
               G#                  A#                       G#       F#
Nem vamos nem comparar, nem que os nossos cortes se tornem risadas e além
             G#             A#
Dos nossos problemas mais ninguém

( A# F G# A# )
( A# F G# )

F#        A#        C#        G#         F#
E se não tem mais certeza de estar tudo bem
D#            F#            F             A#      
Eu não sou resposta de nada, nem de ninguém
F#     A#        C#          G#    F#
E nem sei muito bem o que eu faço aqui
D#         F#         F             A#  
Mas só não pude evitar de vir dizer olá
00:00 / 00:00
Otros videos de esta canción
Repetir
Otros videos de esta canción
Compositor no encontrado.
Colaboración y revisión:
  • Nicolas Miranda
  • Marcos Rolemberg
30 vistas
    • ½ Tono
    • A
    • Bb
    • B
    • C
    • Db
    • D
    • Eb
    • E
    • F
    • F#
    • G
    • Ab
  • Agregar a la lista

    0 comentarios

    Ver todos los comentarios

    ¿Lograste tocar?

    0 Tocaron 1 Aún no

    ¡Graba un video tocando Meia Noite y envíanoslo!

    00:00 / 00:00
    OK