Cifra Club

Azul Azul

Zapato 3

Chords: Principal (acoustic and electric guitars)
tone: Am
INTRO

(v= vibrato)

E|------------------------------------------------------|
B|------------------------------------------------------|
G|-------------------------------------------------------|
D|----------5----------------------------------2---------|
A|------5-7---7-5---5/7--5h7-5-----------------2----------|
E|--5/7-----------7-------------7-6v--3v-------0----------|

E|-----------------------------3----------------------------|
B|-----------------------------3----------------------------|
G|-----------------------------0---------0------0------------|
D|----------5------------------0-------2------0-----2--------|
A|------5-7---7-5---5/7--------2-----3------2-------2--------|
E|--5/7-----------7--------3v--3--------------------0--------|

E|-----------------------------3-----------------------------|
B|-----------------------------3-----------------------------|
G|-----------------------------0---------0------0------------|
D|----------5------------------0-------2------0-----2--------|
A|------5-7---7-5---5/7--------2-----3------2-------2--------|
E|--5/7-----------7--------3v--3--------------------0--------|



verso

Cuando termina de decir "y me complace" hacen esto.
Lo hacen hasta que empieza el solo

E|--3---------------------------------------|
B|--3---------------------------------------|
G|--0---------0------0----------------------|
D|--0-------2------0-----2------------------|
A|--2-----3------2-------2------------------|
E|--3--------------------0------3v----------|

E|--3---------------------------------------|
B|--3---------------------------------------|
G|--0---------0------0----------------------|
D|--0-------2------0-----2------------------|
A|--2-----3------2-------2------------------|
E|--3--------------------0------------------|


Solo

Bueno este es solo no esta perfecto pero asi lo saque
(*= armonico artificial, tipo zakk wylde)
(b= bend)
(/= slide)
(va= vibrato amplio)


E|------------------------------------------------------------------|
B|-15-------------15*b----------------------------------------------|
G|-14b------12---------------12----------12---12-11-10--------------|
D|-------14---------------14---14-----14---------------12---10-9----|
A|------------------------------------------------------------------|
E|------------------------------------------------------------------|

E|----------------------------------------------------------------------|
B|----------------------------------------------------------------------|
G|----------9-11--9-11-12*--11*-12-14----9------9-11*--9-11-12--11--12-14-|
D|--9----12---------------------------------12*--------------------------|
A|----------------------------------------------------------------------|
E|----------------------------------------------------------------------|

E|--12-------12----12----12----12-----12----------|
B|--15b---15b--15b---15b---15b----15b----15b------|
G|-----------------------------------------------|
D|------------------------------------------------|
A|------------------------------------------------|
E|------------------------------------------------|


esto me recuerda a jimi hendrix
(esta parte es con wah-wah)
E|------------------------------------------------------------|
B|------------------------------------------------------------|
G|------------------------------------------------------------|
D|------5-------------------------5----------------------------|
A|----5----------------/7-------5---------------/7-------------|
E|-/7-----5va---/5-3-0-------/7----5va---/5-3-0----------------|

E|----------------------------------------------------------------|
B|----------------------------------------------------------------|
G|----------------------------------------------------------------|
D|----------------------------------------------------------------|
A|--------------------/7-------------------------/7---------------|
E|-3-5-3-5va----5-3-0--------3-5-3-5va-----5-3-0------------------|

luego
E|--3---------------------------3------------|
B|--3---------------------------3------------|
G|--0---------0------0----------0------------|
D|--0-------2------0-----2------0------------|
A|--2-----3------2-------2------2------------|
E|--3--------------------0------3------------|

final
E|--------12-----------------------------------|
B|-------------15-15b--------------------------|
G|---14b---------------------------------------|
D|---------------------------------------------|
A|---------------------------------------------|
E|---------------------------------------------|
00:00 / 00:00
Other videos of this song
Repeat
Other videos of this song
Composer not found.
72 views
    • ½ Tone
    • Am
    • Bbm
    • Bm
    • Cm
    • C#m
    • Dm
    • Ebm
    • Em
    • Fm
    • F#m
    • Gm
    • G#m
  • Add to list
    00:00 / 00:00
    OK