Cifra Club

O Errado Sou Eu

Zé Felipe

Cifrado: Principal (guitarra y guitarra eléctrica)
tono: Db (con acordes en la forma de C) Capotraste en 1ª casa
[Intro] C  G  Dm  F  Am  G

E|--4-4-4-------------------------|
B|--6-6-6--7-6h7p6--4-6--4-6------|
G|---------8-6h8-p6--5-6--5-6-----|
D|--------------------------------|
A|--------------------------------|
E|--------------------------------|

E|--4-4-4-------------------------|
B|--6-6-6--7-6h7p6--4-4--2-4------|
G|---------8-6h8-p6--5-5--3-5-----|
D|--------------------------------|
A|--------------------------------|
E|--------------------------------|

E|-----------------------------------------------------|
B|-------4-7/9-7--6-7--6-7-6------6--4/6-6-6-6---------|
G|--5-6---------------------8-6-------------------6-8--|
D|----------------6-8--6-8-6-8-6-----4/6-6-6-6-6-------|
A|-----------------------------------------------------|
E|-----------------------------------------------------|

[Primeira Parte]

Am
Quer saber
                                      G
Você pra mim não passou de um tempo perdido
                                    Dm
Fez o que fez não teve dó e acabou comigo
 F
Uma dor que vai levar uma vida inteira
        Am      G
Pra se curar

[Segunda Parte]

Am
Você não tem juízo

Entregar o meu coração
                             G
Em suas mãos é o mesmo que morrer
                                       Dm
Você usa ele feito um escudo pra se defender

[Pré-refrão]

        F
Mas eu sei que o errado dessa história
    Am            G
Sou eu, sou eu, sou eu

[Refrão]

  C
Sou eu que faz amor e chora
                   G
Sou eu que sempre abro a porta
               Dm
Sou eu que te perdoo
           F
Você fala te amo
                Am         G
Sou eu que te aceito de volta
Am     G    F    G
O errado sou eu

[Primeira Parte]

Am
Quer saber
                                      G
Você pra mim não passou de um tempo perdido
                                    Dm
Fez o que fez não teve dó e acabou comigo
 F
Uma dor que vai levar uma vida inteira
        Am      G
Pra se curar

[Segunda Parte]

Am
Você não tem juízo

Entregar o meu coração
                             G
Em suas mãos é o mesmo que morrer
                                       Dm
Você usa ele feito um escudo pra se defender

Pré-refrão:

        F
Mas eu sei que o errado dessa história
    Am            G
Sou eu, sou eu, sou eu

[Refrão]

  C
Sou eu que faz amor e chora
                   G
Sou eu que sempre abro a porta
               Dm
Sou eu que te perdoo
           F
Você fala te amo
                Am         G
Sou eu que te aceito de volta

C    G     Dm     F    Am    G
O errado sou eu, sou eu

 C
Sou eu que faz amor e chora
                   G
Sou eu que sempre abro a porta
               Dm
Sou eu que te perdoo
           F
Você fala te amo
                Am         G
Sou eu que te aceito de volta

Am    G       F    G    Am
O errado sou eu
00:00 / 00:00
Otros videos de esta canción
Repetir
Otros videos de esta canción
Composición de Lola Ortix / Victoria
Colaboración y revisión:
  • Adriele Souza
  • Marvin Escher
59 vistas
    • ½ Tono
    • A
    • Bb
    • B
    • C
    • Db
    • D
    • Eb
    • E
    • F
    • F#
    • G
    • Ab
  • Agregar a la lista

    0 comentarios

    Ver todos los comentarios

    ¿Lograste tocar?

    2 Tocaron 0 Aún no

    ¡Graba un video tocando O Errado Sou Eu y envíanoslo!

    00:00 / 00:00
    OK