Cifra Club

Aprenda

Condomínio Fechado

Zé Neto e Cristiano

Tablatura: Principal (guitarra)
tono: Db (con acordes en la forma de C) Capotraste na 1ª casa
[Intro] C  G  Dm  F

E|------------------------------------------|
B|-3/5-5\3------------3---3\6-5-5\3-h5p3\1--|
G|---------5-4--4-5-5---5-------------------|
D|------------------------------------------|
A|------------------------------------------|
E|------------------------------------------|

[Primeira Parte]

      C
É por isso
                                  
Que o celular dela só vive com a tela pra baixo
      G
É por isso

Que eu não tenho a senha e ele só vive travado
      Am
É por isso que ela ficava

Com suas amiga até tarde
 F
Pulga atrás da orelha

Não tem veneno que mate

[Pré-Refrão]
⠀
                             C
Por que é que eu fui investigar
      G      
Procurei, e achei
          Dm              F
O que eu tinha medo de achar
    C/E Dm                    F
Ela entrou num condomínio fechado
              G
Eu fiquei de fora num boteco agoniado

[Refrão]
⠀
 C       G
Deus me livre
               Dm      F
Esse aperto é mal de chifre
                C               G
Enquanto ela demora nesse condomínio
                Dm               F
Eu tô no bar matando garrafa a grito 

 C       G
Deus me livre
               Dm      F
Esse aperto é mal de chifre
                C               G
Enquanto ela demora nesse condomínio
                Dm               F
Eu tô no bar matando garrafa a grito 

[Solo] C  G  Dm  F
       C  G  Dm  F

E|------------------------------------------|
B|-3\5-3-3p0------3---3\6-5-3---------------|
G|------------5-5---5---------5-------------|
D|------------------------------------------|
A|------------------------------------------|
E|------------------------------------------|

E|------------------------------------------|
B|-------3----3/5-5-5--6/8-6-5-3------------|
G|-5-5-5---5---------------------2h4--------|
D|------------------------------------------|
A|------------------------------------------|
E|------------------------------------------|

E|------------------------------------------|
B|-3-3-5-3-3\1--1-1-1---1--6p5-3---3/5------|
G|--------------------2----------5----------|
D|------------------------------------------|
A|------------------------------------------|
E|------------------------------------------|

[Pré-Refrão]
⠀
                             C
Por que é que eu fui investigar
      G      
Procurei, e achei
          Dm              F
O que eu tinha medo de achar
    C/E Dm                    F
Ela entrou num condomínio fechado
              G
Eu fiquei de fora num boteco agoniado

[Refrão]
⠀
 C       G
Deus me livre
               Dm      F
Esse aperto é mal de chifre
                C               G
Enquanto ela demora nesse condomínio
                Dm               F
Eu tô no bar matando garrafa a grito 

 C       G
Deus me livre
               Dm      F
Esse aperto é mal de chifre
                C               G
Enquanto ela demora nesse condomínio
                Dm               F
Eu tô no bar matando garrafa a grito 

 C       G
Deus me livre
               Dm      F
Esse aperto é mal de chifre
                C               G
Enquanto ela demora nesse condomínio
                Dm               F   C
Eu tô no bar matando garrafa a grito
Composição de Ricardo Vismarck / Rodrigo Reys / Ronael ⠀
Colaboración y revision:
  • Thiago Almeida
  • Neto Spaluto
707 reproducciones
    • ½ Tono
    • A
    • Bb
    • B
    • C
    • Db
    • D
    • Eb
    • E
    • F
    • F#
    • G
    • Ab
  • Adicionar à lista

    0 comentarios

    Ver todos os comentários

    ¿Conseguiste tocar?

    0 Tocaram 0 Ainda não

    Grave um vídeo tocando Condomínio Fechado e nos envie!

    00:00 / 00:00
    outros vídeos desta música
    repetir qualidade Automático
    Outros vídeos desta música
    00:00 / 00:00
    Automático
    OK