Cifra Club

Estado Decadente

Zé Neto e Cristiano

Tablatura: Principal (guitarra)
Tom: Db (con acordes en la forma de C) Capo en 1ª casa
[Intro] C  G  Dm  F

E|------------------------------------------|
B|-----------5/6-6p5------------------------|
G|-3/5-5-7-5-----------5/7~-----------------|
D|-------------------5----------------------|
A|------------------------------------------|
E|------------------------------------------|

E|------------------------------------------|
B|-----------5/6-6p5------------------------|
G|-3/5-5-7-5---------5----------------------|
D|---------------------5/7~--5h7-5----------|
A|------------------------------------------|
E|------------------------------------------|

[Primeira Parte]

C
  E lá se vai mais uma noite

Que eu to virando 
G
  No vazio desse apartamento 

[Riff 1]

E|------------------------------------------|
B|-6p5\3------------------------------------|
G|-------5/7-5/7p5-5------------------------|
D|------------------------------------------|
A|------------------------------------------|
E|------------------------------------------|

               Am7
Já tô quase pirando 

Me bate o desespero
               F9
Empilhando garrafa

Passa o tempo só você não passa 

[Refrão]

               C            G
No estado decadente que eu tô 
              Dm7       F
A tristeza decora essa casa
                    C         G
Eu sei que ninguém morre de amor
        Dm7            F   
Mas cachaça e saudade mata

      G        C            G
No estado decadente que eu tô 
              Dm7       F
A tristeza decora essa casa
                    C         G
Eu sei que ninguém morre de amor
        Dm7            F   
Mas cachaça e saudade mata

[Solo] C  G  Dm7  F
       C  G  Dm7  F

E|------------------------------------------|
B|-----------5/6-6p5------------------------|
G|-3/5-5-7-5-----------5/7~-----------------|
D|-------------------5----------------------|
A|------------------------------------------|
E|------------------------------------------|

E|------------------------------------------|
B|-----------5/6-6p5------------------------|
G|-3/5-5-7-5---------5----------------------|
D|---------------------5/7~-----------------|
A|------------------------------------------|
E|------------------------------------------|

E|------------------------------------------|
B|-----------5/6-6p5------------------------|
G|-3/5-5-7-5-----------5/7~-----------------|
D|-------------------5----------------------|
A|------------------------------------------|
E|------------------------------------------|

E|------------------------------------------|
B|-----------6-8/10-6~--5h6-5---------------|
G|-5p4-5---5--------------------------------|
D|-------7----------------------------------|
A|------------------------------------------|
E|------------------------------------------|

[Primeira Parte]

C
  E lá se vai mais uma noite

Que eu to virando 
G
  No vazio desse apartamento 

[Riff 2]

E|------------------------------------------|
B|-6p5\3------------------------------------|
G|-------5/7-5/7----------------------------|
D|------------------------------------------|
A|------------------------------------------|
E|------------------------------------------|

               Dm7
Já tô quase pirando 

Me bate o desespero
               F9
Empilhando garrafa

Passa o tempo só você não passa 

[Refrão]

               C            G
No estado decadente que eu tô 
              Dm7       F
A tristeza decora essa casa
                    C         G
Eu sei que ninguém morre de amor
        Dm7            F   
Mas cachaça e saudade mata

      G        C            G
No estado decadente que eu tô 
              Dm7       F
A tristeza decora essa casa
                    C         G
Eu sei que ninguém morre de amor
        Dm7            F   
Mas cachaça e saudade mata

      G        C            G
No estado decadente que eu tô 
              Dm7       F
A tristeza decora essa casa
                    C         G
Eu sei que ninguém morre de amor
        Dm7            F   
Mas cachaça e saudade mata

      G        C            G
No estado decadente que eu tô 
              Dm7       F
A tristeza decora essa casa
                    C         G
Eu sei que ninguém morre de amor
        Dm7            F   
Mas cachaça e saudade mata

[Final] C  G  Dm7  F  C
reproducciones 328
Acordes para:
    Composição: André Vox / Bruno Cesar / Rodrigo Reys Colaboración y revision:
    • Thiago Almeida

    0 comentarios

    mostrar más comentarios

    ¿Conseguiste tocar?

    17 tocaron 12 aún no

    ¡Graba un vídeo tocando Estado Decadente y envianoslo!

    00:00 / 00:00
    outros vídeos desta música
    repetir qualidade Automático
    Outros vídeos desta música
    00:00 / 00:00
    Automático
    OK