Cifra Club

Grão de Arroz

Zé Neto e Cristiano

Tablatura: Principal (guitarra)
reproducciones 63
Tono: Db (con acordes en la forma de C) Capo en 1ª casa
[Intro] C

E|---3--------0----3--------0----3--------0----------|
B|-1---3--1h3----1---3--1h3----1---3--1h3------------|
G|-0-------------0-------------0---------------------|
D|-2-------------2-------------2---------------------|
A|-3-------------3-------------3---------------------|
E|---------------------------------------------------|

E|---3-x--3/5-3h5------------------------------------|
B|-1---x----------3/5-3\1~---------------------------|
G|-0---x---------------------------------------------|
D|-2---x---------------------------------------------|
A|-3---x---------------------------------------------|
E|---------------------------------------------------|

[Primeira Parte]

    C
Enquanto meu amor não ta cabendo mais no coração
G6
  Vou amando por dois
         Am
O seu parece que não cresce
                            F7M/C
Ainda ta do tamanho de um grão de arroz

[Riff]

E|---------------------------------------------------|
B|-6p5-3/5-3h5p3-1-----------------------------------|
G|---------------------------------------------------|
D|---------------------------------------------------|
A|---------------------------------------------------|
E|---------------------------------------------------|

[Pré-Refrão]

       F
Ta deixando a desejar
           C
Em cada abraço que me dá
           Dm
Que até parece que nem ta ligando
         F                                    Fm
E a sua boca já esqueceu como se fala o eu te amo

[Refrão]

               C
Eu só quero saber
                        G6
Se você ficaria com alguém igual você
               Am
Eu só quero saber
                           F
Se no meu lugar você tentaria esquecer

               C
Eu só quero saber
                        G6
Se você ficaria com alguém igual você
     Am
Porque não termina de vez?
               F
Por favor me abandona
Fm
   Eu não to dando conta

( C  G6  Am  F )

[Primeira Parte]

    C
Enquanto meu amor não ta cabendo mais no coração
      G
Vou amando por dois
         Am
O seu parece que não cresce
                            F
Ainda ta do tamanho de um grão de arroz

[Pré-Refrão]

       F
Ta deixando a desejar
           C
Em cada abraço que me dá
           Dm
Que até parece que nem ta ligando
         F                                    Fm
E a sua boca já esqueceu como se fala o eu te amo

[Refrão]

               C
Eu só quero saber
                        G
Se você ficaria com alguém igual você
               Am
Eu só quero saber
                           F
Se no meu lugar você tentaria esquecer

               C
Eu só quero saber
                        G
Se você ficaria com alguém igual você
     Am
Porque não termina de vez?
               F
Por favor me abandona
Fm                      C
   Eu não to dando conta
Acordes para:
    Compositor: Hiago Vinicius / Juan Marcus Colaboración y revision:
    • Thiago Almeida
    • Getúlio Vasconcelos

    0 comentarios

    mostrar más comentarios

    ¿Conseguiste tocar?

    2 tocaron 0 aún no

    ¡Graba un vídeo tocando Grão de Arroz y envianoslo!

    00:00 / 00:00
    outros vídeos desta música
    repetir qualidade Automático
    Outros vídeos desta música
    00:00 / 00:00
    Automático
    OK