Cifra Club

Aprenda

Pra Juntar

Zé Neto e Cristiano

Tablatura: Principal (guitarra)
tono: C
[Intro] C9  Am7

[Primeira Parte]

C9
  Pra juntar o que

Eu tinha quebrado
                       Am7
Engolir meu orgulho calado

E ficar na sua frente sem graça
                                    F   
Devolver o beijo que eu tinha te negado
C9⠀
  Pra tentar ser o eu do começo
Am7
   Cê me ama, eu sei, te conheço
F9
  Eu sei que fui a causa e o efeito
G  
  Pra tirar essa dor do meu peito
⠀
[Refrão]

C9
  Eu tô voltando

Eu tô voltando, eu tô voltando
Am7
   Com a mala cheia

Mala cheia de eu te amo
F
 Em qualquer canto

Em qualquer canto
             F  F11+ F9
Que você deixar

Eu vou ficar

C9
  Eu tô voltando

Eu tô voltando, eu tô voltando
Am7
   Com a mala cheia

Mala cheia de eu te amo
F
 Em qualquer canto

Em qualquer canto
             F  F11+ F9
Que você deixar

Eu vou ficar

[Solo] C9  Am7  Bb9  G

E|------------------------------------------|
B|------------------------------------------|
G|-7h9/10-7h9/7-----5---7h9/10--7h9-7-------|
D|--------------5h7---7---------------------|
A|------------------------------------------|
E|------------------------------------------|

E|------------------------------------------|
B|------------------------------------------|
G|-------5----5h7-5----5h7-5-5-7h9-7-7------|
D|---5h7---7--5---5-8-----------------------|
A|------------------------------------------|
E|------------------------------------------|

E|---8h10-8-8-10h12-10----15-15-15-15-15----|
B|------------------------15-15-15-15-15----|
G|------------------------------------------|
D|------------------------------------------|
A|------------------------------------------|
E|------------------------------------------|

[Primeira Parte]

C9
  Pra juntar o que

Eu tinha quebrado
                          Am7
Engolir meu orgulho calado

E ficar na sua frente sem graça
                                    F   
Devolver o beijo que eu tinha te negado
C9⠀
  Pra tentar ser o eu do começo
Am7
   Cê me ama, eu sei, te conheço
F9
  Eu sei que fui a causa e o efeito
G  
  Pra tirar essa dor do meu peito

[Refrão]

C9
  Eu tô voltando

Eu tô voltando, eu tô voltando
Am7
   Com a mala cheia

Mala cheia de eu te amo
F
 Em qualquer canto

Em qualquer canto
               F11+ F9
Que você deixar

Eu vou ficar

C9
  Eu tô voltando

Eu tô voltando, eu tô voltando
Am7
   Com a mala cheia

Mala cheia de eu te amo
F
 Em qualquer canto

Em qualquer canto
             F  F11+ F9
Que você deixar

Eu vou ficar 
C9
  Pra juntar

O que eu tinha quebrado
Composição de DOUGLAS MELO / Elcio De Carvalho / Flávinho Tinto / Junior Pepato / Nando Marx
Colaboración y revision:
  • Gustavo Vaz
  • Raffael Uascar
427 reproducciones
    • ½ Tono
    • A
    • Bb
    • B
    • C
    • Db
    • D
    • Eb
    • E
    • F
    • F#
    • G
    • Ab
  • Adicionar à lista

    0 comentarios

    Ver todos os comentários
    00:00 / 00:00
    outros vídeos desta música
    repetir qualidade Automático
    Outros vídeos desta música
    00:00 / 00:00
    Automático
    OK