Cifra Club

Textão

Zé Neto e Cristiano

Cifrado: Principal (guitarra y guitarra eléctrica)
Já pensou em usar uma coleção de roupas do Cifra Club? Responda as perguntas abaixo e nos ajude nessa missão! →
tono: G
[Intro] G  Em7

E|------------------------------------------|
B|------------------------------------------|
G|------------------------------------------|
D|------------------------------------------|
A|------------------------------------------|
E|-0-2-3-0-2/3--0-2-3-0-0--0-2-3-0-2/3------|

[Primeira Parte]

G
Eu levei um tempão
                      Em7
Pra escrever esse textão
  G
E ele tá igual meu coração
                      Em7
Vai precisar de correção

E|------------------------------------------|
B|--8p7-------------------------------------|
G|------9p7/4-5p4---------------------------|
D|----------------5/7/5---------------------|
A|------------------------------------------|
E|------------------------------------------|

[Pré-Refrão]

   G
Eu esqueci que excesso

É com dois s
                    Em7
Mas não esqueço da gente

E|-------------------------------/8---------|
B|-8p7-7-7p5-5-5/3--5h8-7-8-----------------|
G|----------------------------/7------------|
D|------------------------------------------|
A|------------------------------------------|
E|------------------------------------------|

     G
Não sei se a gente é junto ou separado
                    Em7
Mas sei que você entende

E|------------------------------------------|
B|-5h8-7-8----------------------------------|
G|------------------------------------------|
D|------------------------------------------|
A|------------------------------------------|
E|------------------------------------------|

       Am7
Entre verbos e acentos
   D             
Eu   tô sofrendo

E|---10------------------------------------|
B|-----------------------------------------|
G|--/9-------------------------------------|
D|-----------------------------------------|
A|-----------------------------------------|
E|-----------------------------------------|

[Refrão]

G
E você só respondeu

Um oi com um i
            Am7
E um áudio mudo
Em7
E já foi suficiente
                C9
Pra desmoronar meu mundo

             Am7
Duas letras só

Nem gastou seu português
D9
  Me bloqueou de vez

( G )

[Pré-Refrão]

   G
Eu esqueci que excesso

É com dois s
                    Em7
Mas não esqueço da gente
     G
Não sei se a gente é junto ou separado
                    Em7
Mas sei que você entende
           Am7
Que entre verbos e acentos
   D             
Eu   tô sofrendo

[Refrão]

G
E você só respondeu

Um oi com um i
            Am7
E um áudio mudo
Em7
E já foi suficiente
                C9
Pra desmoronar meu mundo

             Am7
Duas letras só
                         D9
Nem gastou seu português

G
E você só respondeu

Um oi com um i
            Am7
E um áudio mudo
Em7
E já foi suficiente
            C9
Pra desmoronar meu mundo

             Am7
Duas letras só

Nem gastou seu português
D9                G
  Me bloqueou de vez
Composición de Douglas Melo / Flavinho Tinto / Cristyan Ribeiro / Nando Marx
Colaboración y revisión:
  • Thiago Almeida
  • Manoel Neto
20 vistas
  • Simplificar cifrado
    • ½ Tono
    • A
    • Bb
    • B
    • C
    • Db
    • D
    • Eb
    • E
    • F
    • F#
    • G
    • Ab
  • Agregar a la lista

    0 comentarios

    Ver todos los comentarios
    00:00 / 00:00
    Outros vídeos desta música
    Repetir Calidad Automático
    Outros vídeos desta música
    00:00 / 00:00
    Automático
    OK